Oops, an error
Loading. Please wait.

Dayvan Cowboy tab

version 1
version 1

Whole song

Interactive

14,548 views 39 this week
9 commentsread comments
1 2 3 4 5
x 10
add to favorites
×
Save as Personal and add changes to this tab that will be seen only by you. Learn more ›
×
You can save this tab as Personal to edit and correct it or add notes. All changes will be seen only by you. Learn more »
launch autoscroll
font size
0
reset
how to read this tab
guitar tuner
edit
Autoscroll
slow
fast
+/-
esc
set tempo
stop
Author
Difficulty
Unregistered
Artist: Boards of Canada
Song:   Dayvan Cowboy
Album:  The Campfire Headphase
Tabbed by: baileyandrew@gmail.com (Andrew Bailey)




EADGBe

Q=84



INTRO
=====


Guitar 1 (lo-fi)

|---------------------------|
|---------------------------|
|---------2-------------4---|
|--4------2------2------4---|
|--4------0------2------2---|
|--2-------------0----------|


Guitar 2 (lo-fi, delay)

|----2------5------0------7-|
|---2------5------0------7--|
|--3------6------1------8---|
|-4------7------2------9----|
|---------------------------|
|---------------------------|



BODY
====


Guitar 1 (pan, envelope)

|---------------------------|
|---------------------------|
|---------2-------------4---|
|--4------2------2------4---|
|--4------0------2------2---|
|--2-------------0----------|


Guitar 2 (pan)

|-2-|
|-2-|
|-3-|
|-4-|
|---|
|---|

            
            
Suggest correction
Creating personal tab
Creating personal tab
You can edit any tab online and save it as your Personal.

You can edit, replace or remove any tab part or add personal notes – all changes will be seen only by you.

Personal tabs can be accessed anytime from any device, even offline.
Learn more »
comments
print report bad tab
9 comments total. Showing first comments.
+1 reply
boardsofcanada 30 Feb 02, 2006 07:25 PM

for the body,
(not what is shown)

Guitar 2 (pan)

|---------------------------|
|---------------------------|
|---------2-------------4---|
|--4------2------2------4---|
|--4------0------2------2---|
|--2-------------0----------|

0 reply
Daniel Bacellar 54 Nov 19, 2007 04:07 PM

Man, why don't you just use the tuning DADGbBB?

-1 reply
TempleOfMonkeys 61 Nov 27, 2007 12:04 PM

indierock1, dude, don't be so closed minded. Dayvan Cowboy has guitar parts in it for ****'s sake. Did you know that
people play the guitar parts from songs... on guitars?? And besides, people can play whatever they feel like on guitar.


and Daniel Bacellar, you must ****ing suck at playing guitar if you have to play in such stupid tunings. If you
can't play this song easily in EADGBe, you're screwed.

guest
Wanna post a correction for this tab? Suggest correction