Oops, an error
Loading. Please wait.

Satellite Anthem Icarus tab

5,856 views 6 this week
2 commentsread comments
1 2 3 4 5
x 4
add to favorites
×
Save as Personal and add changes to this tab that will be seen only by you. Learn more ›
×
You can save this tab as Personal to edit and correct it or add notes. All changes will be seen only by you. Learn more »
launch autoscroll
font size
0
reset
how to read this tab
guitar tuner
edit
Autoscroll
slow
fast
+/-
esc
set tempo
stop
Boards of Canada - Satellite Anthem Icarus
(Campfire Headphase - Released 17/10/2005)

Drop D Tuning (Drop low E to D)


E) ------------------------------------ 0-0-0-------|
B) -------0--------------------------- 2-2-3-2------|
G) -------2---------------0---------- 2-2-2-2-2-----|
D) -----0-------------------0---------0-0-0-0-0-----|
A) ---3----------------2-----2-------0-0------------|
D) -3-------3-2-0-2----------2-0--0-0---------------|

Repeat over and over. Basically that's all there is to it! There is a sample in the tune 
is just a variation of the Dmaj7 chord from the main riff.

Tabbed by Gavin G

            
            
Suggest correction
Creating personal tab
Creating personal tab
You can edit any tab online and save it as your Personal.

You can edit, replace or remove any tab part or add personal notes – all changes will be seen only by you.

Personal tabs can be accessed anytime from any device, even offline.
Learn more »
comments
print report bad tab
2 comments total.
0 reply
Daniel Bacellar 54 Nov 19, 2007 04:38 PM

You should drop high E tu B, also

+1 reply
hendrixfreak93 881 Aug 08, 2009 08:03 AM

Not true, Daniel Bacellar. The only tuning correction, if you want to play along with the album, would be that you need to calibrate your tuner to about 430 Hz, and then tune to that. You will end up being a little bit flat, like it sounds on the album. As far as the tab, I have one correction:

This:
e|-------------------|
B|--------0----------|
G|--------2----------|
D|------0------------|
A|----3--------------|
D|--3----------------|

Should be this:
e|-------------------|
B|--------0----------|
G|--------0----------|
D|------0------------|
A|----3--------------|
D|--3----------------|

Other than that, looks fine.

guest
You may want to rate the tab now too:
select rating
Wanna post a correction for this tab? Suggest correction