Oops, an error
Loading. Please wait.

Dreams Tab

362 views 1 this week
no commentswrite comment
1 2 3 4 5
3 more votes to show rating
add to favorites
launch autoscroll
font size
0
reset
how to read this tab
guitar tuner
Autoscroll
slow
fast
+/-
esc
set tempo
stop
Help us to improve Ultimate-Guitar.com Take our survey!
×
Author
Difficulty
this is only the intro, but it's really easy to play and it sounds awesome with distortion!

e|--0-3-5--5-3-0---0-------0-----------|
B|---------------1---3-1-3---3-1-------|
G|-------------------------------2-----|
D|-------------------------------------|
A|-------------------------------------|
E|-------------------------------------|

e|--0-3-5--5-3-0---0-------0-----------|
B|---------------1---3-1-3---3-1-------|
G|-------------------------------0-----|
D|-------------------------------------|
A|-------------------------------------|
E|-------------------------------------|

e|--0-3-5--5-3-0---0-------0-----------|
B|---------------1---3-1-3---3-1-------|
G|-------------------------------2-----|
D|-------------------------------------|
A|-------------------------------------|
E|-------------------------------------|

e|--------------0----------------------|
B|----0-1---1-3------------------------|
G|--2-----2-------2-2-0-2--------------|
D|-------------------------------------|
A|-------------------------------------|
E|-------------------------------------|

Well, there you have it.  Enjoy!
Suggest correction
Give kudos to tab author, rate the tab!
1 2 3 4 5
comments
print report bad tab
guest
You may want to rate the tab now too:
select rating
Wanna post a correction for this tab? Suggest correction