Oops, an error
Loading. Please wait.

Shelter From The Night Tab

241 views 1 this week
no commentswrite comment
1 2 3 4 5
please rate
add to favorites
launch autoscroll
font size
0
reset
how to read this tab
guitar tuner
Tab Pro tools
  • play this tab
  • loop segment
  • change instrument
  • show fretboard
  • metronome
×
Best way to learn
"Shelter From The Night"
Autoscroll
slow
fast
+/-
esc
set tempo
stop
Contributor
Difficulty
Tuning
novice
D# G# C# F# A# D#
BOB CATLEY – Shelter From The Night
from the Legends (1999) record

Intro:
e-5---5-8-7-----5-----5-3-----3-5-|-5---5-8-7-----5-----5-3-----3-5-|
B---5-------8-5-----5-------5-----|---5-------8-5-----5-------5-----|
G---------------------------------|---------------------------------|
D---------------------------------|---------------------------------|
A---------------------------------|---------------------------------|
E---------------------------------|---------------------------------|

e-5---5-8-7-----5-----5-3-----3-5-|-5---5-8-7-----5-----|
B---5-------8-5-----5-------5-----|---5-------8-5-------|
G---------------------------------|---------------------|
D---------------------------------|---------------------|
A---------------------------------|---------------------|
E---------------------------------|---------------------|

Verse 1:
Am            G            F           Am
Listen to the sound of the wind in the trees
Am             G          F        Am 
Falling down below like a lost melody
Am            G            C            D     F                   G 
Echoes that resound in the depths of my soul, beckon the blood to flow 

Am            G            F           Am
Listen to the cries of the wind in the eaves 
Am            G           F       Am
Every nerve exposed, only one remedy
Am              G             C        D        F                     G 
Deep within the vaults of the castle I roam and wait for the light to go 

Pre-chorus:
                   F           G      Am      G
I'm burnin' like a fire in the dark tonight 
      F           G                   Am  G    Am  G
Yeah, she put the knife through my tender heart 
F            G      Am   G     D       E
Pyres in the dark tonight as I bleed... 

Chorus:
      Am  F   G                Am     F
All I need is shelter from the night 
    G             F               G                   Am    F 
The love I buried deep within her eyes had passed and gone 
    G Am  F   G                Am     F
All I need is shelter from the light 
    G                F                 G                           F       G
The quest within for peace, a thousand years, with a love to last eternity 

Verse 2:
Am            G           F             Am
Listen to the sounds of a frost covered dream
Am              G             F         Am 
Children of the night whisper softly to me
Am                 G            C      D     F                 G 
Caught against the white Transylvanian snow, calling me down below 

Am            G              F           Am
Listen to the sighs you were scared to believe
Am             G             F          Am
Haunted by the ghost that my love never sees 
Am              G               C             D     F                    G
Searching every night that some day she might know, just how the feeling grows 

Pre-chorus

Chorus 

Intro

Solo rhythm:
F, G, Am, G
F, G, Am, G, Am, G
F, G, Am, G, D, E

Chorus 2x

Intro
comments
We did not receive enough feedback on this tab! Please rate:
print report bad tab
1 2 3 4 5
I want to post or [tab]
guest
You may want to rate the tab now too:
select rating
Please do not post tabs as comments. Select "correction" instead!