Oops, an error
Loading. Please wait.

We Are Immortal Chords

103 views 1 this week
no commentswrite comment
1 2 3 4 5
please rate
add to favorites
launch autoscroll
font size
0
reset
transpose
0
reset
simplify chords
display chords
guitar tuner
Tab Pro tools
  • play this tab
  • loop segment
  • change instrument
  • show fretboard
  • metronome
×
Best way to learn
"We Are Immortal"
Autoscroll
slow
fast
+/-
esc
set tempo
stop
Contributor
Tuning
D# G# C# F# A# D#
BOB CATLEY – We Are Immortal
from the album Immortal (2008)

Intro:
G#m, Em, Bm, A (2x)

Main riff:
e---|-------------------------------|------------------------------|
B---|-------------------------------|------------------------------|
G---|---------4-4--6---------4-4--6-|---------4-4------------------|
D-6-|---------4-4--6---------4-4--6-|---------4-4--------4-------6-|
A-6-|---6-6-6-2-2--4---6-6-6-2-2--4-|---6-6-6-2-2------4---<2>---6-|
E-4-|---4-4-4----------4-4-4--------|---4-4-4-------2------------4-|

e-------------------------------|-----------------------------|
B-------------------------------|-----------------------------|
G---------4-4--6---------4-4--6-|---------4-4---9------8------|
D---------4-4--6---------4-4--6-|---------4-4---9------9------|
A---6-6-6-2-2--4---6-6-6-2-2--4-|---6-6-6-2-2---7--7-7-6--6-6-|
E---4-4-4----------4-4-4--------|---4-4-4---------------------|

repeat Main riff

Verse 1:
C#m                    A/C#
   I believe there's a holy ground
         B                     G#m            B
Where we will be safe from the spells around
C#m                     A/C#
   I believe there will be an end
       B                      A           E
To the hunt that forced us to live in the dark
    A             E
And hide from our lives

Verse 2:
C#m               A/C#
   Only minutes before the dawn
B                         G#m            B
  Run and hide before the night is gone
C#m                   A/C#
   Another day on the battlefield
B                    A             E
Do as you told don't show what you feel
   A                 E
Pretend it's not for real

Chorus:
       G#m                    E
We can see it all through our evil dreams
    F#                  D#m
The truth is not always what it seems
    C#m                   E
The tyrants will fall and we will rule
G#m               F#
Let them hear our call
       G#m                    E
We can see it all through our evil dreams
    F#                  D#m
The truth is not always what it seems
    C#m                   E
The tyrants will fall and we will rule
   G#m               F#
So let them hear our call
         G#m
We are immortal

repeat Main riff

Verse 3:
C#m                    A/C#
   I believe there's a place for us
B                 G#m                B
Far from the war, far from our loss
C#m          A/C#
   Our souls can't be slaves
B              A                  E
Our dreams can never be forced to change
A              E
Forced to disappear

repeat Chorus

repeat Intro

Solo rhythm:
Fm, Fm, Db, E
Fm, Fm, E, Db, E, F#

repeat Chorus

repeat Main riff twice

end on G#m
comments
We did not receive enough feedback on this tab! Please rate:
print report bad tab
1 2 3 4 5
I want to post or [tab]
guest
You may want to rate the tab now too:
select rating
Please do not post tabs as comments. Select "correction" instead!