Oops, an error
Loading. Please wait.

Rag Mop tab

10 views 1 this week
no commentswrite comment
1 2 3 4 5
3 more votes to show rating
add to favorites
×
Save as Personal and add changes to this tab that will be seen only by you. Learn more ›
×
You can save this tab as Personal to edit and correct it or add notes. All changes will be seen only by you. Learn more »
launch autoscroll
font size
0
reset
how to read this tab
guitar tuner
edit
Autoscroll
slow
fast
+/-
esc
set tempo
stop
(Trumpet: Time: 00.00)
E|-------|
B|-------|
G|-2-2---|
D|-2-2---|
A|-------|
E|-------|

(Obo)
E|---------------------------------------------------|
B|---------------------------------------------------|
G|-1-h-2-\-4---7---12---14---7---4---3---1---13---2--|
D|---------------------------------------------------|
A|---------------------------------------------------|
E|---------------------------------------------------|

(Trumpet: Time: 00.3.14)
E|-------|
B|-------|
G|-2-2---|
D|-2-2---|
A|-------|
E|-------|

(Trombone:)
E|------------------------------------|
B|------------------------------------|
G|-8---6-\-5---4---2-h-3---8---5---5--|
D|------------------------------------|
A|------------------------------------|
E|------------------------------------|

(Trumpet: 00.6.8)
E|-----------------------------------------------|
B|-----------------------------------------------|
G|-2-2---6-\-7---5---5---5---4---4---4---3---2---|
D|-2-2-------------------------------------------|
A|-----------------------------------------------|
E|-----------------------------------------------|

(Vocal)
A           A7
Oh Rag That Mop!

(Drum solo)

(Trumpet: Time: 00.12.00)
E|----------------------------------|
B|-------------------5---3---0---3--|
G|-2-2---1-/-2---4------------------|
D|-2-2------------------------------|
A|----------------------------------|
E|----------------------------------|

E|-----------------------------------|
B|--------------------5---3---0---3--|
G|--2-2---1-/-2---4------------------|
D|--2-2------------------------------|
A|-----------------------------------|
E|-----------------------------------|

E|-----------------------------------|
B|--------------------4---3---1---0--|
G|-2-2----1-/-2---4------------------|
D|-2-2-------------------------------|
A|-----------------------------------|
E|-----------------------------------|

E|--------------------------------------|
B|-----------------------5---3---0---3--|
G|-2-2---1-/-2---4----------------------|
D|-2-2----------------------------------|
A|--------------------------------------|
E|--------------------------------------|

E|--------------------------------|
B|-------------------3---1-----2--|
G|-2-2---0---1---4---------4------|
D|-2-2----------------------------|
A|--------------------------------|
E|--------------------------------|

(Time: 00.26.5)
B|--------------------------------|
G|-2---2---2---2---2---2-2---2-2--|
D|--------------------------------|
A|--------------------------------|
E|--------------------------------|
E|--------------------------------|

(00.30.14)
E|---------------------------------|
B|------------------5---3---0---3--|
G|--2---1-/-2---4------------------|
D|--2------------------------------|
A|---------------------------------|
E|---------------------------------|

E|----------------------------------|
B|-----------------5-5---3---0---3--|
G|-2---1-/-2---4--------------------|
D|-2--------------------------------|
A|----------------------------------|
E|----------------------------------|

E|----------------------------------------|
B|-----------------4---4---4---3---1---0--|
G|-2---1-/-2---4--------------------------|
D|-2--------------------------------------|
A|----------------------------------------|
E|----------------------------------------|

(00.36.26)
E|-----------------------------------------------------------|
B|-----------------5---5---4---6---7---8---9---13---15---13--|
G|-2---1-/-2---4---------------------------------------------|
D|-2---------------------------------------------------------|
A|-----------------------------------------------------------|
E|-----------------------------------------------------------|

E|-----------------------------------------------------------|
B|-13---10---9---9---8---9---10---9---9---9---7---7---7---7--|
G|-----------------------------------------------------------|
D|-----------------------------------------------------------|
A|-----------------------------------------------------------|
E|-----------------------------------------------------------|

(Obo: 00.45.2)
E|--------------------------------------------------|
B|-13---12---13---11---9---11---11---8---7---8---8--|
G|--------------------------------------------------|
D|--------------------------------------------------|
A|--------------------------------------------------|
E|--------------------------------------------------|

E|--------------------|
B|-9---9---4---5---4--|
G|--------------------|
D|--------------------|
A|--------------------|
E|--------------------|

(Obo: 00.51.2)
E|-----------------------------------------------------------------|
B|-1-/-4---4---6---7---4---3---4---4---5-/--9---4---3---2-\-1-h-2--|
G|-----------------------------------------------------------------|
D|-----------------------------------------------------------------|
A|-----------------------------------------------------------------|
E|-----------------------------------------------------------------|

E|--------------------------------|
B|-1---4---6---5---1---4---6---5--|
G|--------------------------------|
D|--------------------------------|
A|--------------------------------|
E|--------------------------------|

(01.02.2)
E|------------------------|
B|-0-h-1-s-2---4---6-/-9--|
G|------------------------|
D|------------------------|
A|------------------------|
E|------------------------|

E|--------------------|
B|-4-h-5-p-4---0---4--|
G|--------------------|
D|--------------------|
A|--------------------|
E|--------------------|

E|----------------------------|
B|-0---4-h-5---5---4---4---0--|
G|----------------------------|
D|----------------------------|
A|----------------------------|
E|----------------------------|

(Trombone: 01.04.29)
E|--------------------------------------------|
B|-0---1-/-2---4---4---2---0---1-p-0---1-h-2--|
G|--------------------------------------------|
D|--------------------------------------------|
A|--------------------------------------------|
E|--------------------------------------------|

E|--------------------------------------------|
B|-0---1-p-0---4---4---4---4---0---1---0------|
G|-----------------------------------------1--|
D|--------------------------------------------|
A|--------------------------------------------|
E|--------------------------------------------|

E|------------------------------------|
B|-2---1-----------1---2---2---1------|
G|---------3---3-------------------3--|
D|------------------------------------|
A|------------------------------------|
E|------------------------------------|

(Trombone: 01.14.11)
E|----------------------------|
B|-4---2-------2---0---2---0--|
G|---------3------------------|
D|----------------------------|
A|----------------------------|
E|----------------------------|

(01.17.22)
E|--------------------------------------------------------|
B|-1---2-/-4---5-h-4---2---4---1---2---4---4---4---4---1--|
G|--------------------------------------------------------|
D|--------------------------------------------------------|
A|--------------------------------------------------------|
E|--------------------------------------------------------|

(01.17.22)
E|--------------------|
B|-1-------1---1------|
G|-----3-----------1--|
D|--------------------|
A|--------------------|
E|--------------------|

(Muted Trumpet: 01.22.06)
E|------------------------------------------------|
B|-2---2---2---2---2---0---2-h-3---5---2-h-3---2--|
G|------------------------------------------------|
D|------------------------------------------------|
A|------------------------------------------------|
E|------------------------------------------------|

E|----------------|
B|-2---1---2---2--|
G|----------------|
D|----------------|
A|----------------|
E|----------------|

(01.28.01)
E|--------------------------------------------------|
B|-12---7---5---7----7---7---7---7---5---3---5---5--|
G|--------------------------------------------------|
D|--------------------------------------------------|
A|--------------------------------------------------|
E|--------------------------------------------------|

E|------------------------|
B|-9---9---7---5---7---9--|
G|------------------------|
D|------------------------|
A|------------------------|
E|------------------------|

(01.37.20)
E|--------------------|
B|-5---2---1---2---5--|
G|--------------------|
D|--------------------|
A|--------------------|
E|--------------------|

B|--------------------------------|
G|-2---2---2---2---2---2-2---2-2--|
D|--------------------------------|
A|--------------------------------|
E|--------------------------------|
E|--------------------------------|

(Trumpet (no mute): 01.42.1)
E|----------------------------------|
B|-------------------5---3---0---3--|
G|-2-2---1-/-2---4------------------|
D|-2-2------------------------------|
A|----------------------------------|
E|----------------------------------|

E|------------------------|
B|-1---2---4---5---2---5--|
G|------------------------|
D|------------------------|
A|------------------------|
E|------------------------|

E|--------------------------------------------------|
B|-----------------------------------------------1--|
G|-2-2---3---3---2-/-1---3---3---3---3---3---3------|
D|-2-2----------------------------------------------|
A|--------------------------------------------------|
E|--------------------------------------------------|

(01.49.22)
E|------------------------|
B|-2---1---2---4---1------|
G|---------------------1--|
D|------------------------|
A|------------------------|
E|------------------------|

(Drum solo)

(Trumpet:  02.03.2)
E|---------------------------------------------|
B|-4---2---1---2---4---4—4--4---2---1---2---4--|
G|---------------------------------------------|
D|---------------------------------------------|
A|---------------------------------------------|
E|---------------------------------------------|


************************************

| h  Hammer-on
| \  Slide down
| /  Slide up
| p  Pull-off
 

************************************

            
            
Suggest correction
Creating personal tab
Creating personal tab
You can edit any tab online and save it as your Personal.

You can edit, replace or remove any tab part or add personal notes – all changes will be seen only by you.

Personal tabs can be accessed anytime from any device, even offline.
Learn more »
Give kudos to tab author, rate the tab!
1 2 3 4 5
comments
print report bad tab
guest
You may want to rate the tab now too:
select rating
Wanna post a correction for this tab? Suggest correction