Oops, an error
Loading. Please wait.

Blowin In The Wind Tab

version 2
version 2
14,540 views 12 this week
1 commentread comment
1 2 3 4 5
please rate
add to favorites
launch autoscroll
font size
0
reset
how to read this tab
guitar tuner
Autoscroll
slow
fast
+/-
esc
set tempo
stop
Help us to improve Ultimate-Guitar.com Take our survey!
×
Author
Capo
7th fret
Blowin in the wind Bob Dylan
CAPO 7TH FRET 
I hope you like it. Enjoy!
For Elsa, Stan, Quentin, Biloute


|--------------|-------------|---2-----2--|--------------|
|----0----0----|----1----2---|---3------3-|----0---------|
|----0-----0---|----0----0---|---2--2-----|----0----0----|
|----0---------|----2----0---|------------|----0------0--|
|--------------|--3----2-----|-0----------|--------------|
|--3----3------|-------------|------------|--3----3------|
   How many    roads must a   man     walk    down

|--------------|-------------|--------------|--------------|
|----0----0----|----1----2---|----0----0----|----0----0----|
|----0-----0---|----0-----0--|----0-----0---|----0-----0---|
|----0---------|----2--------|----0---------|----0---------|
|--------------|--3----2-----|--------------|--------------|
|--3----3------|-------------|--3----3------|0h3----3------|
 Before     you   call him  a   man 

|--------------|-------------|---2-----2--|--------------|
|----0----0----|----1----2---|---3------3-|----0---------|
|----0-----0---|----0----0---|---2--2-----|----0----0----|
|----0---------|----2----0---|------------|----0------0--|
|--------------|--3----2-----|-0----------|--------------|
|--3----3------|-------------|------------|--3----3------|
   How many      seas must the white dove    sail


|--------------|-------------|--------------|--------------|
|----0----0----|----1----2---|----0----0----|----0----0----|
|----0-----0---|----0-----0--|----0-----0---|----0-----0---|
|----0---------|----2--------|----0---------|----0---------|
|--------------|--3----2-----|--------------|--------------|
|--3----3------|-------------|--3----3------|0h3----3------|
 Before  she     sleeps in the  sand

|--------------|-------------|---2-----2--|--------------|
|----0----0----|----1----2---|---3------3-|----0---------|
|----0-----0---|----0----0---|---2--2-----|----0----0----|
|----0---------|----2----0---|------------|----0------0--|
|--------------|--3----2-----|-0----------|--------------|
|--3----3------|-------------|------------|--3----3------|
  How    many  times must the  cannonballs   fly


|--------------|-------------|--------------|--------------|
|----0----0----|----1----2---|----0----0----|----0----0----|
|----0-----0---|----0-----0--|----0-----0---|----0-----0---|
|----0---------|----2--------|----0---------|----0---------|
|--------------|--3----2-----|--------------|--------------|
|--3----3------|-------------|--3----3------|0h3----3------|
 Before they're   forever       banned
                                     
|-------------|---2----2---|--------------|---------------|
|----1----2---|---3-----3--|----0----0----|----1-----1----|
|----0----0---|---2--2-----|----0-----0---|----0------0---|
|----2----0---|------------|----0---------|----2----------|
|--3----2-----|-0----------|--------------|--3------------|
|-------------|------------|--3----3------|-------3-------|
 The answer my   friend     is blowin in the wind


|-------------|---2----2---|---------------|
|----1----2---|---3-----3--|----0----------|
|----0----0---|---2--------|----0-----0----|
|----2----0---|------------|----0-------0--|
|--3----2-----|-0----0-----|---------------|
|-------------|------------|--3----3-------|
 The answer is  blowin in the wind

How many years can a mountain exist
Before it's washed to the sea?
Yes, 'n' how many years can some people exist
Before they're allowed to be free?
Yes, 'n' how many times can a man turn his head,
Pretending he just doesn't see?
The answer, my friend, is blowin' in the wind,
The answer is blowin' in the wind.


How many times must a man look up
Before he can see the sky?
Yes, 'n' how many ears must one man have
Before he can hear people cry?
Yes, 'n' how many deaths will it take till he knows
That too many people have died?
The answer, my friend, is blowin' in the wind,
The answer is blowin' in the wind
Suggest correction
Give kudos to tab author, rate the tab!
1 2 3 4 5
comments
print report bad tab
1 comment total.
0 reply
maguri 25,160 wrote on December 30 2010, 10:30 am

Good job! By far the best version of this song that can be found on this site. At least the one closest to how Dylan plays it on "Freewheelin'. He only picks the bass notes, however, and then strums the other strings. He doesn't play a fingerpicking pattern.

But one chord is not correct. It's the G/B following the C when the bass line is going down.

This is what it should look like:


G C G/B D/A G
|----3----3--3-|-------------|---2----2-2-|----3----3--3-|
|----0----0--0-|----1----0---|---3----3-3-|----0----0--0-|
|----0----0--0-|----0----0---|---2----2-2-|----0----0--0-|
|----0----0--0-|----2----0---|---0----0-0-|----0----0--0-|
|--------------|--3----2-----|-0----0-----|--------------|
|--3----3------|-------------|------------|--3----3------|
How many roads must a man walk down



Should be corrected throughout the song.

guest
You may want to rate the tab now too:
select rating
Please do not post tabs as comments. Select "correction" instead!