Oops, an error
Loading. Please wait.

Corrina Corrina Tab

version 3
version 3

Whole song

Interactive

31,876 views 117 this week
2 commentsread comments
1 2 3 4 5
x 17
add to favorites
launch autoscroll
font size
0
reset
how to read this tab
guitar tuner
×
Best way to learn
"Corrina Corrina"
Autoscroll
slow
fast
+/-
esc
set tempo
stop
Author
Tuning
Capo
D A D F# A D
3rd fret
Bob Dylan
Corrina, Corrina


Open D Tunning
Capo 3rd fret


[Intro]

D |-----------------|-----------------|-----------------|---0-------0-----|
A |-----------------|-----------------|-----------------|-----------------|
F#|-----------------|-----------------|-----------------|-0-------1-------|
D |-----------------|-----------------|-----------------|-----0-------0---|
A |-----------------|-----------------|-----------------|---------2-------|
D |-----------------|-----------------|-----------------|-0---------------|

D |---0-------0-----|---0-------0-----|---0-------0-----|---0--------0----|
A |-----------------|-----------------|-----------------|-----------------|
F#|-0-------1-------|-0---------------|---------1-------|-0---------------|
D |-----0-------0---|-----0---2---2---|-0---0-------0---|-----0---2----2--|
A |---------2-------|-----------------|---------2-------|-----------------|
D |-0---------------|-0-------2-------|-0---------------|-0-------2-------|


[Verse]

D |---0-------0-----|---0-------0-----|---0-------0-----|---5-------5-----|
A |-----------------|-----------------|-----------------|-----------------|
F#|---------1-------|-0-------1-------|-0-------0-------|-5-------5-------|
D |-0---0-------0---|-----0-------0---|-----0-------0---|-----0-------0---|
A |---------2-------|---------2-------|-----------------|-----------------|
D |-0---------------|-0---------------|-0-------0-------|-5-------5-------|
           Corrina, Corrina                              Gal, where you

D |---7-------5-----|---4-------5-----|---4-------5-----|---4-------2-----|
A |-----------------|-----------------|-----------------|-----------------|
F#|5/7------5-------|-3------3/5------|-3------3/5------|-3-------1-------|
D |-----0-------0---|-----0-------0---|-----0-------0---|-------------0---|
A |-----------------|-----------------|-----------------|-----0-----------|
D |5/7------5-------|-0------0--------|-0------0--------|-0-------2-------|
   been so long?

D |---0-------2-----|---5-------5-----|---5-------5-----|---7-------5-----|
A |-----------------|-----------------|-----------------|-----------------|
F#|-0------1--------|-5-------5-------|-5-------5-------|5/7------5-------|
D |-----0-------0---|-----0-------0---|-----0-------0---|-----0-------0---|
A |-----------------|-----------------|-----------------|-----------------|
D |-0------2--------|-5-------5-------|-5-------5-------|5/7------5-------|
                     Corrina, Corrina                   Gal, where you been

D |---4-------5-----|---4-------5-----|---4-------2-----|---0-------0-----|
A |-----------------|-----------------|-----------------|-----------------|
F#|-3-----3/5-------|-3------3/5------|-3-------1-------|-0-------1-------|
D |-----0-------0---|-----0-------0---|-----0-------0---|-----0-------0---|
A |-----------------|-----------------|-----------------|---------2-------|
D |-0-----0---------|-0------0--------|-0-------2-------|-0---------------|
    so long?

D |---0-------0-----|---7-------7-----|---5-------5-----|---7-------5-----|
A |-----------------|-----------------|-----------------|-----------------|
F#|-0------0--------|5/7------7-------|-5-------5-------|5/7------5-------|
D |-----0-------0---|-----0-------0---|-----0-------0---|-----0-------0---|
A |-----------------|-----------------|-----------------|-----------------|
D |-0------0--------|5/7------7-------|-5-------5-------|5/7------5-------|
           I been worrying about you, baby                 Baby, please 

D |---4-------5-----|---7-------5-----|---4-------2-----|---0-------0-----|
A |-----------------|-----------------|-----------------|-----------------|
F#|-3-----3/5-------|5/6------5-------|-3-------1-------|-0-------1-------|
D |-----0-------0---|-----0-------0---|-----0-------0---|-----0-------0---|
A |-----------------|-----------------|-----------------|---------2-------|
D |-0-----0---------|0--------5-------|-0-------2-------|-0---------------|
   come home


[Verse 2]

D |---0-------0-----|---0-------0-----|---0-------0-----|---5-------5-----|
A |-----------------|-----------------|-----------------|-----------------|
F#|-0-------1-------|-0-------1-------|-0-------0-------|-5-------5-------|
D |-----0-------0---|-----0-------0---|-----0-------0---|-----0-------0---|
A |---------2-------|---------2-------|-----------------|-----------------|
D |-0---------------|-0---------------|-0-------0-------|-5-------5-------|
           I got a bird that whistles                           I got a bird 

ETC...


Lyrics:

Corrina, Corrina
Gal, where you been so long?
Corrina, Corrina
Gal, where you been so long?
I been worrying about you, baby
Baby, please come home

I got a bird that whistles
I got a bird that sings
I got a bird that whistles
I got a bird that sings
But I aint got Corrina
Life dont mean a thing

Corrina, Corrina
Gal, youre on my mind
Corrina, Corrina
Gal, youre on my mind
Im thinking about you, baby
I just cant keep from crying.



************************************

| /  Slide up 

************************************
Suggest correction
comments
print report bad tab
2 comments total.
+1 reply
MSlovenkay 10 Jun 21, 2012 08:29 PM

great tab! thank you for posting this! i feel like ill be 1000% better at finger picking once i master this... and also wooing the ladies...

0 reply
nelliewilson 183 Feb 12, 2013 07:18 PM

Dylan used the open D tuning way back in 1962 as shown here and he used it again on the Blood On The Tracks album. The man is prolific. Good post friend.

guest
You may want to rate the tab now too:
select rating
Wanna post a correction for this tab? Suggest correction