Oops, an error
Loading. Please wait.

Desolation Row Tab

67,259 views 114 this week
6 commentsread comments
1 2 3 4 5
x 24
add to favorites
launch autoscroll
font size
0
reset
how to read this tab
guitar tuner
Autoscroll
slow
fast
+/-
esc
set tempo
stop
Help us to improve Ultimate-Guitar.com Take our survey!
×
Author
Difficulty
Capo
intermediate
4th fret
This is the lead guitar for the song.  At the very bottom is the chords.  Both guitars 
capoed at the 4th fret.  The chords used are C Csus4 F G.  See below for the order in 
the are used.  The harmonica key is the key of E.

C     032010*
Csus4 033010*
F     033211* or 133211 or 003211
G     320033* or 320003

*recomended

e|------|-----------------|
B|------|-----------------|
G|------|---------0-------|
D|------|---0-2-------3---|
A|------|-3---------------|
E|--3---|-----------------|

[1st verse]

   C
   :   .   .   .     :   .   .   .     :   .   .   .
e|-----------------|-----------------|-----------------|----------------|
B|-----------------|-----------------|-----------------|----------------|
G|-----------------|-0---------------|-----------------|----------------|
D|-2----------/3---|-----3---2---0---|/2-0-------------|------------0---|
A|-----------------|-----------------|-----3-------3---|--------3-------|
E|-----------------|-----------------|-----------------|----3-----------|
                                                        They're selling

   C
   :   .   .   .     :   .   .   .     :   .   .   .     :   .   .   .
e|-----------------|-----------------|-----------------|-----------------|
B|-----------------|-----------------|-----------------|-----------------|
G|-----------------|-----------------|-----------------|-------------0---|
D|-----------------|-----------------|-----------------|-----0---2-------|
A|-3---------------|-----------------|-----------------|-3---------------|
E|-----------------|-----------------|-------------3---|-----------------|
  postcards             of the hanging                              They're

   F                                   C
   :   .   .   .     :   .   .   .     :   .   .   .     :   .   .   .
e|-----------------|-----------------|-------------0---|-3---1---010-----|
B|-----------------|-----------------|---------1-3-----|-------------3---|
G|-----------------|-----------------|-----0-----------|-----------------|
D|-3---------------|-----------------|-----------------|-----------------|
A|-----------------|-----------------|-----------------|-----------------|
E|-----------------|-----------------|-----------------|-----------------|
  painting the      passports       brown                           The

   G
   :   .   .   .     :   .   .   .     :   .   .   .     :   .   .   .
e|-----------------|-----------------|-----------------|-----------------|
B|-1---------------|-----------------|-------0h3---1---|-010-------------|
G|-----------------|-----------------|-----------------|-----2---0-------|
D|-----------------|-----------------|-----0-----------|-------------0---|
A|-----------------|-----------------|-----------------|-----------------|
E|-----------------|-----------------|-----------------|-----------------|
  beauty-parlor's filled with sailors

   F                                   C
   :   .   .   .     :   .   .   .     :   .   .   .     :   .   .   .
e|-------------1---|-1---1---1---1---|-0-----------0---|-----------------|
B|-----------------|-----------------|-----------------|-3---3---3---3---|
G|-2-----------2---|-2---2---2---2---|-0-----------0---|-----------------|
D|-----------------|-----------------|-----------------|-3---3---3---3---|
A|-----------------|-----------------|-----------------|-----------------|
E|-----------------|-----------------|-----------------|-----------------|
       The circus is in town

   C
   :   .   .   .     :   .   .   .     :   .   .   .     :   .   .   .
e|-----------------|-----------------|-----------------|-0---1---3-------|
B|-3--/5-----------|-----------------|---------1---3---|-----------------|
G|-----------------|-----------------|-----0-----------|-----------------|
D|-3--/5-----------|-----------------|-----------------|-----------------|
A|-----------------|-----------------|-----------------|-----------------|
E|-----------------|-----------------|-----------------|-----------------|
  Here comes the blind commissioner

   F                                   C
   :   .   .   .     :   .   .   .     :   .   .   .     :   .   .   .
e|-1---------------|-----------------|-----------------|-3---1---010-----|
B|-----------------|-----------------|-----------------|-------------3---|
G|-----------------|-----------------|-------------0---|-----------------|
D|-----------------|-----------------|-----------------|-----------------|
A|-----------------|-----------------|-----------------|-----------------|
E|-----------------|-----------------|-----------------|-----------------|
  They've got him in a trance

   G
   :   .   .   .     :   .   .   .     :   .   .   .     :   .   .   .
e|-----------------|-----------------|-------0-1---010-|-----------------|
B|-3---------------|-----------------|-----3-----------|-3---3---1-------|
G|-----------------|-----------------|-----------------|-----------2p0---|
D|-----------------|-----------------|-----------------|-----------------|
A|-----------------|-----------------|-----------------|-----------------|
E|-----------------|-----------------|-----------------|-----------------|
One hand is tied to the tight-rope walker

   F                                   C
   :   .   .   .     :   .   .   .     :   .   .   .     :   .   .   .
e|-----------------|-----------------|-----------------|-----------------|
B|-----------------|-1---------------|-----------------|-----------------|
G|-2-----------3---|-----3--p2-------|-0-------0-2-0---|-----------------|
D|-----------------|-----------------|-----------------|-3---2---0-------|
A|-----------------|-----------------|-----------------|-------------2---|
E|-----------------|-----------------|-----------------|-----------------|
The other is in his pants

   F
   :   .   .   .     :   .   .   .     :   .   .   .     :   .   .   .
e|-----------------|-----------------|-----------------|-----------------|
B|-----------------|-----------------|-------------1---|---------1-------|
G|-----------------|-----------------|---------2-------|-----2-------2---|
D|-----------------|-----------------|-----3-----------|-----------------|
A|-3---------------|-----------------|-----------------|-----------------|
E|-----------------|-----------------|-----------------|-----------------|
And the riot-squad they're restless                                They

   C                                   F
   :   .   .   .     :   .   .   .     :   .   .   .     :   .   .   .
e|-----------------|-----------------|-----------------|-----------------|
B|-----------------|-----------------|-------------1---|-3---131-----1---|
G|-0---------------|-----------------|-----------2-----|---------2-------|
D|-----------------|-----------------|---------3-------|-----------------|
A|-----------------|-----------------|-----------------|-----------------|
E|-----------------|-----------------|-----------------|-----------------|
need somewhere to go

   C                                   G
   :   .   .   .     :   .   .   .     :   .   .   .     :   .   .   .
e|-----------------|-0---1---3---010-|-------------0---|-1---010---------|
B|-1-----------3---|-----------------|-3---------------|---------3---1---|
G|-----------------|-----------------|-----------------|-----------------|
D|-----------------|-----------------|-----------------|-----------------|
A|-----------------|-----------------|-----------------|-----------------|
E|-----------------|-----------------|-----------------|-----------------|
As Lady and I                 look    out tonight

   F                                   C                 Csus4
   :   .   .   .     :   .   .   .     :   .   .   .     :   .   .   .
e|-----1-----------|--------(1)------|---------0-------|-1-1-1-1-1---0---|
B|-----------------|-----------------|-----1-------1---|-----------------|
G|-2---------------|-----2-------2---|-0---------------|-----------------|
D|-----------------|-----------------|-----------------|-----------------|
A|-----------------|-----------------|-----------------|-----------------|
E|-----------------|-----------------|-----------------|-----------------|
From Desolation Row

   C                 Csus4             C
   :   .   .   .     :   .   .   .     :   .   .   .     :   .   .   .
e|---------0-------|-0-1-1-1-1---0---|-----------------|---------0---1---||
B|-----1-------1---|-----------------|-1---------------|-1---3-----------||
G|-0---------------|-----------------|-------------0---|-----------------||
D|-----------------|-----------------|-----------------|-----------------||
A|-----------------|-----------------|-----------------|-----------------||
E|-----------------|-----------------|-----------------|-----------------||

[2nd verse]

    C
    :   .   .   .     :   .   .   .     :   .   .   .     :   .   .   .
e||-0---------------|-----------------|---------0---1---|-010-------------|
B||-----------------|-----------------|-----------------|-----3---1---3---|
G||-----------------|-----------------|-----0-----------|-----------------|
D||-----------------|-----------------|-----------------|-----------------|
A||-----------------|-----------------|-----------------|-----------------|
E||-----------------|-----------------|-----------------|-----------------|
   Cinderella....

   F                                   C
   :   .   .   .     :   .   .   .     :   .   .   .     :   .   .   .
e|-----------------|-----------------|-----3---3---1---|-1--/3-------3---|
B|-1---------------|-----------------|-----5---5---3---|-3--/5-------5---|
G|-----------------|-----------------|-----------------|-----------------|
D|-----------------|-----------------|-----------------|-----------------|
A|-----------------|-----------------|-----------------|-----------------|
E|-----------------|-----------------|-----------------|-----------------|
  it takes one...

   G
   :   .   .   .     :   .   .   .     :   .   .   .     :   .   .   .
e|-3--\1-----------|-----------------|-----------------|-----------------|
B|-5--\3-----------|-----------------|---------3---5---|-6---5---3-------|
G|-----------------|-----------------|---------4---5---|-7---5---4-------|
D|-----------------|-----------------|-----------------|-----------------|
A|-----------------|-----------------|-----------------|-----------------|
E|-----------------|-----------------|-----------------|-----------------|
  puts her hand...

   F                                   C
   :   .   .   .     :   .   .   .     :   .   .   .     :   .   .   .
e|-1---------------|-----------------|-------------0---|-3---1---010-----|
B|-----------------|-----------------|---------1-3-----|-------------3---|
G|-2---------------|-----------------|-----0-----------|-----------------|
D|-----------------|-----------------|-----------------|-----------------|
A|-----------------|-----------------|-----------------|-----------------|
E|-----------------|-----------------|-----------------|-----------------|
  Betty Davies style

   C
   :   .   .   .     :   .   .   .     :   .   .   .     :   .   .   .
e|-----------------|-----------------|-----------------|-------------0---|
B|-1---------------|-----------------|-----------------|---------1-------|
G|-----------------|-----------------|-----------------|-----0-----------|
D|-----------------|-----------------|-------------0---|-2---------------|
A|-----------------|-----------------|---------3-------|-----------------|
E|-----------------|-----------------|-----------------|-----------------|
  In comes Romeo...

   F                                   C
   :   .   .   .     :   .   .   .     :   .   .   .     :   .   .   .
e|-1---------------|-----------------|---------3---1---|-010-------------|
B|-----------------|-----------------|-----1-----------|-----3---1-------|
G|-----------------|-----------------|-----------------|-------------0---|
D|-----------------|-----------------|-----------------|-----------------|
A|-----------------|-----------------|-----------------|-----------------|
E|-----------------|-----------------|-----------------|-----------------|
  you belong to me...

   G
   :   .   .   .     :   .   .   .     :   .   .   .     :   .   .   .
e|-----------------|-----------------|-----------------|-----------------|
B|-0---------------|-----------------|-----------------|--h1--h1--0------|
G|-----------------|-----------------|-----------------|-------------2p0-|
D|-----------------|-----------------|-------------0---|-----------------|
A|-----------------|-----------------|-----------------|-----------------|
E|-----------------|-----------------|-----------------|-----------------|
  And someone says...

   F                                   C
   :   .   .   .     :   .   .   .     :   .   .   .     :   .   .   .
e|-----------------|-----------------|-----------------|-----------------|
B|-----------------|-----------------|-----------------|-----------------|
G|-----------------|-----------------|-----------------|-0---------------|
D|-3---------------|-----------------|-----------0-2---|-----2---2---0---|
A|-----------------|-----------------|---------3-------|-----------------|
E|-----------------|-----------------|-----3-----------|-----------------|
  you'd better leave

   F
   :   .   .   .     :   .   .   .     :   .   .   .     :   .   .   .
e|-----------------|-----------------|-------------5---|-6---565---------|
B|-----------------|-----------------|---------6-------|--------(6)------|
G|-----------------|-----------------|-----5-----------|-----------------|
D|-3---------------|-----------------|-----------------|------------(3)--|
A|-----------------|-----------------|-----------------|-----------------|
E|-----------------|-----------------|-----------------|-----------------|
 And the only sound...

   C                                   F
   :   .   .   .     :   .   .   .     :   .   .   .     :   .   .   .
e|-----------------|-----------------|-----------------|-----------------|
B|-----------------|-----------------|-----------------|-----------------|
G|(0)--------------|-----------------|-----------------|h2---3---232-----|
D|-----------------|-----------------|-------------3---|-------------3---|
A|-----------------|-----------------|-----0---3-------|-----------------|
E|-----------------|-----------------|-----------------|-----------------|
  after the ambulances go

   C                                   G
   :   .   .   .     :   .   .   .     :   .   .   .     :   .   .   .
e|-----------------|-----------------|-----------------|-----------------|
B|-----------------|-----------------|-----------------|-----------------|
G|-----------------|-----------------|-----------------|-----------------|
D|(3)--------------|-----------------|-------------0---|-3p2-0-----------|
A|-----------------|-----------------|---------2-------|---------2-------|
E|-----------------|-----------------|-----3-----------|-------------5p3-|
  Is Cinderella...

   F                                   C                 Csus4
   :   .   .   .     :   .   .   .     :   .   .   .     :   .   .   .
e|-----------------|-----------------|-----------------|-1-1-1-1-1---0---|
B|-----------------|-----------------|-------------1---|-----------------|
G|-----------------|-----------------|---------0-------|-----------------|
D|-3---------------|-----------------|-----------------|-----------------|
A|-----------------|-----3-----------|-3---3-----------|-----------------|
E|-------------1---|-5-------5p3-1---|-----------------|-----------------|
  on Desolation Row

   C                 Csus4             C
   :   .   .   .     :   .   .   .     :   .   .   .     :   .   .   .
e|-------------0---|-1-1-1-1-1---0---|-------------0---|-1-1-1-1-1---0---||
B|-1-------1-------|-----------------|-1-------1-------|-----------------||
G|-----0-----------|-----------------|-----0-----------|-----------------||
D|-----------------|-----------------|-----------------|-----------------||
A|-----------------|-----------------|-----------------|-----------------||
E|-----------------|-----------------|-----------------|-----------------||


[3rd verse]

    C
    :   .   .   .     :   .   .   .     :   .   .   .     :   .   .   .
e||-----------------|-----------------|-----------------|-0-------8-------|
B||-1---------------|-----------------|---------1---3---|-----8-------8---|
G||-----------------|-----------------|-----0-----------|-----------------|
D||-----------------|-----------------|-----------------|-----------------|
A||-----------------|-----------------|-----------------|-----------------|
E||-----------------|-----------------|-----------------|-----------------|


   F                                   C
   :   .   .   .     :   .   .   .     :   .   .   .     :   .   .   .
e|-5---------------|-----------------|---------3---5---|-353-------------|
B|-----------------|-----------------|-----5-----------|-----6---5--(1)--|
G|-----------------|-----------------|-----------------|-----------------|
D|-----------------|-----------------|-----------------|-----------------|
A|-----------------|-----------------|-----------------|-----------------|
E|-----------------|-----------------|-----------------|-----------------|


   G
   :   .   .   .     :   .   .   .     :   .   .   .     :   .   .   .
e|-----------------|-----------------|-----------------|---------7---8p7-|
B|-0---------------|-----------------|---------3-------|-----8-----------|
G|-----------------|-----------------|------4----------|-----------------|
D|-----------------|-----------------|---5-------------|-----------------|
A|-----------------|-----------------|-----------------|-----------------|
E|-----------------|-----------------|-----------------|-----------------|


   F                                   C
   :   .   .   .     :   .   .   .     :   .   .   .     :   .   .   .
e|-5---------------|-------------5---|-3---5---353-----|-----------------|
B|-----------------|---------6-------|-------------6---|-5---6---5---3---|
G|-----------------|-----5-----------|-----------------|-----------------|
D|-----------------|-----------------|-----------------|-----------------|
A|-----------------|-----------------|-----------------|-----------------|
E|-----------------|-----------------|-----------------|-----------------|


   C
   :   .   .   .     :   .   .   .     :   .   .   .     :   .   .   .
e|-----------------|-----------------|-----0---1---3---|-----3---5---3---|
B|-3--p5-------5---|-----------------|-----1---3---5---|-----5---6---5---|
G|-----------------|-----------------|-----------------|-----------------|
D|-----------------|-----------------|-----------------|-----------------|
A|-----------------|-----------------|-----------------|-----------------|
E|-----------------|-----------------|-----------------|-----------------|


   F                                   C
   :   .   .   .     :   .   .   .     :   .   .   .     :   .   .   .
e|-5---------------|-----------------|-----------------|-----------------|
B|-6---------------|-----------------|---------5---6---|-565-------------|
G|-----------------|-----------------|-----------------|-----7---575-----|
D|-----------------|-----------------|-----5-----------|-------------7---|
A|-----------------|-----------------|-----------------|-----------------|
E|-----------------|-----------------|-----------------|-----------------|


   G
   :   .   .   .     :   .   .   .     :   .   .   .     :   .   .   .
e|-----------------|-----------------|-----------------|-----------------|
B|-----------------|-----------------|-----------------|-----------------|
G|-----------------|-------------4---|-7---4---5---454-|-----------------|
D|-5---------------|---------5-7-----|-----------------|-7---5-------5---|
A|-----------------|-----5-----------|-----------------|---------5-------|
E|-----------------|-----------------|-----------------|-----------------|


   F                                   C
   :   .   .   .     :   .   .   .     :   .   .   .     :   .   .   .
e|-----------------|-----------------|---------0---1---|h0---------------|
B|-----------------|-----------------|-------1---------|-----3---1-------|
G|-------------0---|-2---3---2-------|-----0-----------|-------------0---|
D|-3-------3-------|-----------------|-----------------|-----------------|
A|-----3-----------|-----------------|-----------------|-----------------|
E|-----------------|-----------------|-----------------|-----------------|


   F
   :   .   .   .     :   .   .   .     :   .   .   .     :   .   .   .
e|-----------------|-----------------|-----------------|---------1---3---|
B|-----------------|-----------------|-----------------|-----1-----------|
G|-2---------------|-----------------|-------------0---|-2---------------|
D|-----------------|-----------------|---------3-------|-----------------|
A|-----------------|-----------------|-0---3-----------|-----------------|
E|-----------------|-----------------|-----------------|-----------------|


   C                                   F
   :   .   .   .     :   .   .   .     :   .   .   .     :   .   .   .
e|(3)--------------|-----------------|-------------3---|-3---1---1-------|
B|-----------------|-----------------|-------------1---|-1---1---1-------|
G|-----------------|-----------------|-------------2---|-2---2---2-------|
D|-----------------|-----------------|-----------------|-------------3---|
A|-----------------|-----------------|-----------------|-----------------|
E|-----------------|-----------------|-----------------|-----------------|


   C                                   G
   :   .   .   .     :   .   .   .     :   .   .   .     :   .   .   .
e|-0-----------1---|-1---0---0-------|-----------------|-----------------|
B|-1-----------1---|-1---1---1-------|-3------------5--|-5---3---3-------|
G|-0-----------0---|-0---0---0---2---|-4------------4--|-4---4---4-------|
D|-----------------|-----------------|-5------------5--|-5---5---5---3---|
A|-----------------|-----------------|-----------------|-----------------|
E|-----------------|-----------------|-----------------|-----------------|


   F                                   C                 Csus4
   :   .   .   .     :   .   .   .     :   .   .   .     :   .   .   .
e|-1---------------|-----------------|-----------------|-3-3-3-3-3---3---|
B|-1---------------|-----------------|-------------5---|-5---6---6---6---|
G|-2---------------|-----------------|---------5-------|-----------------|
D|-----------------|-----------------|-----5-----------|-----------------|
A|-----------------|-----------------|-----------------|-----------------|
E|-----------------|-----------------|-----------------|-----------------|


   C                 Csus4             C
   :   .   .   .     :   .   .   .     :   .   .   .     :   .   .   .
e|-3---------------|-3-3-3-3-3---3---|-3-----------3---|-3-3-3-3-3---3---||
B|-6p5-----5-------|-5---6---6---6---|-6p5---------5---|-5---6---6---5---||
G|-------------5---|-----------------|-----------------|-----------------||
D|-----------------|-----------------|-----------------|-----------------||
A|-----------------|-----------------|-----------------|-----------------||
E|-----------------|-----------------|-----------------|-----------------||

[4th verse]

    C
    :   .   .   .     :   .   .   .     :   .   .   .     :   .   .   .
e||-3---------------|-----------------|-----------------|---------8-------|
B||-5---------------|-----------------|-----------------|-----8-------8---|
G||-----------------|-----------------|-------------7---|-9---------------|
D||-----------------|-----------------|---------10------|-----------------|
A||-----------------|-----------------|-----10----------|-----------------|
E||-----------------|-----------------|-----------------|-----------------|


   F                                   C
   :   .   .   .     :   .   .   .     :   .   .   .     :   .   .   .
e|-----------------|-----------------|-----------------|-5---------------|
B|-8h10------------|-----------------|-------------8---|-----6---5-------|
G|-----------------|-----------------|-----------------|-----------------|
D|-----------------|-----------------|-----------------|-----------------|
A|-----------------|-----------------|-----------------|-----------------|
E|-----------------|-----------------|-----------------|-----------------|


   G
   :   .   .   .     :   .   .   .     :   .   .   .     :   .   .   .
e|-----------------|-----------------|-----------------|-----7---8p7-----|
B|-----------------|-----------------|-----------------|-8-----------8---|
G|-7---------------|-----------------|-------------7---|-----------------|
D|-----------------|-----------------|---------9-------|-----------------|
A|-----------------|-----------------|-----10----------|-----------------|
E|-----------------|-----------------|-----------------|-----------------|


   F                                    C
   :   .   .   .     :   .   .    .     :   .   .   .     :   .   .   .
e|-----------------|------------------|-----------------|-----------------|
B|-10--------------|-----10--11p10----|-8-----------10--|p8---------------|
G|-----------------|---10---------10--|-----------------|-----10--9---7---|
D|-----------------|-10---------------|-----------------|-----------------|
A|-----------------|------------------|-----------------|-----------------|
E|-----------------|------------------|-----------------|-----------------|


   C
   :   .   .   .     :   .   .   .     :   .   .   .     :   .   .   .
e|-----------------|-----------------|-----------------|---------3-------|
B|-----------------|-----------------|-------------3---|-5---6-------5---|
G|-7--h9-----------|-----------------|---------5-------|-----------------|
D|-----------------|-----------------|-----5-----------|-----------------|
A|-----------------|-----------------|-----------------|-----------------|
E|-----------------|-----------------|-----------------|-----------------|

   F                                   C
   :   .   .   .     :   .   .   .     :   .   .   .     :   .   .   .
e|-----------------|-----------------|-----5---353-----|-----------------|
B|-6---------------|-----------------|-------------6---|-5---353---------|
G|-----------------|-----------------|-----------------|---------5-------|
D|-----------------|-----------------|-----------------|-----------------|
A|-----------------|-----------------|-----------------|-----------------|
E|-----------------|-----------------|-----------------|-----------------|


   G
   :   .   .   .     :   .   .   .     :   .   .   .     :   .   .   .
e|-----------------|-----------------|-----------------|-----------------|
B|-----------------|-3---------------|-----------------|-----------------|
G|-4-----------5---|---------5-------|-5---4-------5---|-454-2-----------|
D|-----------------|-----------------|-----------------|---------5---4---|
A|-----------------|-----------------|-----------------|-----------------|
E|-----------------|-----------------|-----------------|-----------------|


   F                                   C
   :   .   .   .     :   .   .   .     :   .   .   .     :   .   .   .
e|-----------------|-----------------|---------0---1---|-010-------------|
B|-----------------|---------1-------|-1---3-----------|-----3---1-------|
G|-----------------|-----2-------2---|-----------------|-----------------|
D|-3---------------|-3---------------|-----------------|-----------------|
A|-----------------|-----------------|-----------------|-----------------|
E|-----------------|-----------------|-----------------|-----------------|


   F
   :   .   .   .     :   .   .   .     :   .   .   .     :   .   .   .
e|---------1-------|-1---------------|---------1---1---|-----------------|
B|-----1-----------|-----------------|-----------------|-----------------|
G|-2---------------|-----------------|-----------------|-----------------|
D|-----------------|-----------------|-3---------------|-----------------|
A|-----------------|-----------------|-----------------|-----------------|
E|-----------------|-----------------|-----------------|-----------------|

   C                                   F
   :   .   .   .     :   .   .   .     :   .   .   .     :   .   .    .
e|-------------3---|-3---3---3---3---|-5-----------5---|(5)--8---8--------|
B|-------------5---|-5---6---565-5---|-6-----------6---|(6)--8---8h10p8---|
G|-----------------|-----------------|-----------------|------------------|
D|-----------------|-----------------|-----------------|------------------|
A|-----------------|-----------------|-----------------|------------------|
E|-----------------|-----------------|-----------------|------------------|


   C                                   G
   :   .   .   .     :   .   .   .     :   .   .   .     :   .   .   .
e|-8---------------|-----------------|-7-----------7---|-8---7-------7---|
B|10p8-------------|---------8-------|-8---------------|---------8-------|
G|-----------------|---------9-------|-----------------|-----------------|
D|-----------------|-----------------|-----------------|-----------------|
A|-----------------|-----------------|-----------------|-----------------|
E|-----------------|-----------------|-----------------|-----------------|


   F                                   C                 Csus4
   :   .   .   .     :   .   .   .     :   .   .   .     :   .   .   .
e|-5---------------|-5h6-5-----------|-3---------------|-8---------------|
B|-6-------------6-|-------------6---|-5-----------8---|---------8h10----|
G|-------------5---|-----------------|-----------------|-----------------|
D|-----------------|---------7-------|-----------------|-----------------|
A|-----------------|-----------------|-----------------|-----------------|
E|-----------------|-----------------|-----------------|-----------------|


   C                 Csus4               C
   :   .   .   .     :   .   .    .      :   .   .   .     :    .     .   .
e|-----------------|-------------------|-----------------|--------------------||
B|h10--8-----------|-------------------|-----------------|--------------------||
G|-------------10--|-9---9---9h10-9h10-|-9-----------9---|-9-10-10-10-h10-h10-||
D|-----------------|-------------------|-----------------|--------------------||
A|-----------------|-------------------|-----------------|--------------------||
E|-----------------|-------------------|-----------------|--------------------||


[5th verse]

    C
    :   .   .   .     :   .   .   .     :   .   .   .     :   .   .   .
e||-----------------|-----------------|-----------------|-----------------|
B||-----------------|-----------------|-----------------|-----------------|
G||p9---------------|-----------------|-----------------|-----------------|
D||-----------------|-----------------|-----------0-2---|-0-------0---2---|
A||-----------------|-----------------|---------3-------|-----3-----------|
E||-----------------|-----------------|-----3-----------|-----------------|


   F                                   C
   :   .   .   .     :   .   .   .     :   .   .   .     :   .   .   .
e|-----------------|-----------------|-----------------|-----------------|
B|-----------------|-----------------|-----------------|-----------------|
G|-------------0---|-2---------------|-----0---0---2---|-020-------------|
D|-3---------------|-----------------|-----------------|-----3---2-------|
A|-----------------|-----------------|-----------------|-------------2---|
E|-----------------|-----------------|-----------------|-----------------|


   G
   :   .   .   .     :   .   .   .     :   .   .   .     :   .   .   .
e|-----------------|-----------------|-----------------|-----------------|
B|-----------------|-----------------|-----------------|-----------------|
G|-----------------|-----------------|-----------------|-----------------|
D|-----------------|-----------------|-----------------|---------0-------|
A|-1h2-------------|---------0h2-0---|-------------0---|-2---3-------2---|
E|-----------------|-----------------|-3---------------|-----------------|


   F                                   C
   :   .   .   .     :   .   .   .     :   .   .   .     :   .   .   .
e|-----------------|-----------------|-----------------|------------------|
B|-----------------|-----------------|-----------------|------------------|
G|-----------------|-----------------|-----------------|------------------|
D|-----------------|-----------------|-----------0-2---|-3---2---020------|
A|-----------------|-0---3---0---3---|-3-------3-------|------------32----|
E|-1-----------3---|-----------------|-----------------|------------------|


   C
   :   .   .   .     :   .   .   .     :   .   .   .     :   .   .   .
e|-----------------|-----------------|-----------------|---------010-----|
B|-----------------|-----------------|-----------------|-----1-------1---|
G|-----------------|-----------------|-----------------|-0---------------|
D|-----------------|-------------0---|-2-----------2---|-----------------|
A|-3---------------|---------3-------|-----------------|-----------------|
E|-----------------|-----3-----------|-----------------|-----------------|

   F                                   C
   :   .   .   .     :   .   .   .     :   .   .   .     :   .   .   .
e|-0h1-------------|-----------------|---------3-------|-----------------|
B|-----------------|-----------------|-------------6---|-5---3-----------|
G|-----------------|-----------------|-----------------|---------5---5---|
D|-----------------|-----------------|-----5-----------|-----------------|
A|-----------------|-----------------|-----------------|-----------------|
E|-----------------|-----------------|-----------------|-----------------|


   G
   :   .   .   .     :   .   .   .     :   .   .   .     :   .   .   .
e|-----------------|-----------------|-----------------|-----------------|
B|-----------------|-----------------|-------0h3---1---|-010-------------|
G|-2h4-------------|-----------------|-----------------|-----2---020-----|
D|-----------------|-----------------|-----0-----------|-------------0---|
A|-----------------|-----------------|-----------------|-----------------|
E|-----------------|-----------------|-----------------|-----------------|


    F                                   C
    :   .   .   .     :   .   .   .     :   .   .   .     :   .   .   .
e|------------------|-----------------|-------------0---|-1p0-------------|
B|------------------|-----------------|---------1-------|-----3---1-------|
G|5p2-------------2-|---2-----2-------|-----0-----------|-------------0---|
D|----------3-------|-----3-----------|-----------------|-----------------|
A|--------------5---|-----------------|-----------------|-----------------|
E|------------------|-----------------|-----------------|-----------------|


   F
   :   .   .   .     :   .   .   .     :   .   .   .     :   .   .   .
e|-----------------|-------------5---|-5---6-------6---|-6---6---6---5---|
B|-6---6-------6---|-------------6---|-6---6-------6---|-6---6---6---6---|
G|-5---5-------5---|-------------5---|-5---5-------5---|-5---5---5---5---|
D|-----------------|-----------------|-----------------|-----------------|
A|-----------------|-----------------|-----------------|-----------------|
E|-----------------|-----------------|-----------------|-----------------|

   C                                   F
   :   .   .   .     :   .   .   .     :   .   .   .     :   .   .   .
e|-5---3-----------|-----------------|---------5-------|-6p5-------------|
B|-6---5-----------|-----------------|-------6-----6---|-----8---6-------|
G|-----------------|-----------------|-----5-----------|-------------5---|
D|-----------------|-----------------|-----------------|-----------------|
A|-----------------|-----------------|-----------------|-----------------|
E|-----------------|-----------------|-----------------|-----------------|


   C                                    G
   :   .   .   .     :   .    .   .     :   .   .   .     :   .   .   .
e|-----------------|------------------|-----------------|-----------------|
B|-----------------|--------3h5-3-----|-3-----------5---|-6---5---353-----|
G|-5---------------|-----5--------5---|-----------------|-------------5---|
D|-----------------|-5----------------|-----------------|-----------------|
A|-----------------|------------------|-----------------|-----------------|
E|-----------------|------------------|-----------------|-----------------|


   F                                   C                 Csus4
   :   .   .   .     :   .   .   .     :   .   .   .     :   .   .   .
e|-----------------|-----------------|-------------0---|-3---1---010-----|
B|-----------------|-----1-------1---|-1-------1-3-----|-------------3---|
G|-----------------|-2-------2-------|-----------------|-----------------|
D|-3-----------3---|-----------------|-----------------|-----------------|
A|-----------------|-----------------|-----------------|-----------------|
E|-----------------|-----------------|-----------------|-----------------|


   C                 Csus4             C
   :   .   .   .     :   .   .   .     :   .   .   .     :   .   .   .
e|-------------0---|-3---1---010-----|-----------------|---------0---3---||
B|-1-------1-3---3-|-------------3---|-1---------------|-1---3-----------||
G|-----------------|-----------------|-------------0---|-----------------||
D|-----------------|-----------------|-----------------|-----------------||
A|-----------------|-----------------|-----------------|-----------------||
E|-----------------|-----------------|-----------------|-----------------||


[6th verse]

    C
    :   .   .   .     :   .   .   .     :   .   .   .     :   .   .       .
e||-010-------------|-----------------|---------8---10--|-12--10--8h10p8--7---|
B||-----------------|-----------------|-----------------|---------------------|
G||-----------------|-----------------|-----------------|---------------------|
D||-----------------|-----------------|-----------------|---------------------|
A||-----------------|-----------------|-----------------|---------------------|
E||-----------------|-----------------|-----------------|---------------------|


   F                                   C
   :   .   .   .     :   .   .   .     :   .   .   .     :   .   .   .
e|-----------------|-----------------|-----------------|-----3-------3---|
B|-10--------------|-----------------|-------------3---|-5-------5-------|
G|-----------------|-----------------|---------5-------|-----------------|
D|-----------------|-----------------|-----5-----------|-----------------|
A|-----------------|-----------------|-----------------|-----------------|
E|-----------------|-----------------|-----------------|-----------------|


   G
   :   .   .   .     :   .   .   .     :   .   .   .     :   .   .   .
e|-----------------|-----------------|-----3---3---3---|-3---3---3-------|
B|-6---------------|-----------------|-----6---6---5---|-5---3---3-------|
G|-----------------|-----------------|-----------------|-----------------|
D|-----------------|-----------------|-----------------|-----------------|
A|-----------------|-----------------|-----------------|-----------------|
E|-----------------|-----------------|-----------------|-----------------|


   F                                   C
   :   .   .   .     :   .   .   .     :   .   .   .     :   .   .   .
e|-----------------|-----------------|---------3-------|-----------------|
B|(1)------1-------|-----------------|-----------------|-6---5---3-------|
G|(2)--------------|-2---------------|-----------------|-------------5---|
D|-----------------|-----------------|-----5-------5---|-----------------|
A|-----------------|-----------------|-----------------|-----------------|
E|-----------------|-----------------|-----------------|-----------------|


   C
   :   .   .   .     :   .   .   .     :   .   .   .     :   .   .   .
e|-----------------|-----------------|-------------3---|-3---5---353-----|
B|-3h5-------------|-----------------|---------5-6-----|-------------6---|
G|-----------------|-----------------|-----------------|-----------------|
D|-----------------|-----------------|-----------------|-----------------|
A|-----------------|-----------------|-----------------|-----------------|
E|-----------------|-----------------|-----------------|-----------------|

   F                                   C
   :   .   .   .     :   .   .   .     :   .   .   .     :      .   .   .
e|-5-----------6---|-8---------------|-----10--12--12--|-8h10p8-----8--------|
B|-----------------|-----------------|-----------------|--------10------10---|
G|-----------------|-----------------|-----------------|---------------------|
D|-----------------|-----------------|-----------------|---------------------|
A|-----------------|-----------------|-----------------|---------------------|
E|-----------------|-----------------|-----------------|---------------------|


   G
   :   .   .   .     :   .   .   .     :   .   .   .     :   .   .   .
e|-7---------------|-----------------|-10--8---787-----|-----------------|
B|-----------------|-----------------|-------------10--|-8-------10--8---|
G|-----------------|-----------------|-----------------|-----------------|
D|-----------------|-----------------|-----------------|-----------------|
A|-----------------|-----------------|-----------------|-----------------|
E|-----------------|-----------------|-----------------|-----------------|


   F                                   C
   :   .   .   .     :   .   .   .     :   .   .   .     :   .   .   .
e|-----------------|-----------------|-----------------|-----------------|
B|-6 --------------|-----------------|-------------3---|-5---353-----5---|
G|-----------------|-----------------|---------5-------|---------5-------|
D|-----------------|-----------------|-----5-----------|-----------------|
A|-----------------|-----------------|-----------------|-----------------|
E|-----------------|-----------------|-----------------|-----------------|


   F
   :   .   .   .     :   .   .   .     :   .   .   .     :   .   .   .
e|-----------------|-----------------|-----5---6---6---|-6---5---5-------|
B|-6---------------|-----------------|-----6---6---6---|-6---6---6-------|
G|-----------------|-----------------|-----5---5---5---|-5---5---5-------|
D|-----------------|-----------------|-----------------|-----------------|
A|-----------------|-----------------|-----------------|-----------------|
E|-----------------|-----------------|-----------------|-----------------|

   C                                   F
   :   .   .   .     :   .   .   .     :   .   .   .     :   .   .   .
e|-----------------|-----------------|-----------------|-----------------|
B|-----------------|-----------------|-----------------|-----------------|
G|-----------------|-----------------|-----------------|-----------------|
D|-----------------|-----------------|-3-----------3---|-3-------3-------|
A|-----------------|-3-----------3---|-----------------|-----------------|
E|-------------3---|---------3-------|-----------------|-----------------|


   C                                   G
   :   .   .   .     :   .   .   .     :   .   .   .     :   .   .   .
e|-----------------|-----------------|-----------------|-----------------|
B|-----------------|-----------------|-----------------|-----------------|
G|-----------------|-----------------|-----------------|-----------------|
D|-----------------|-----------------|-----------------|-----------------|
A|-----------------|---------3---5---|-3h5-------------|-----5---3h5-----|
E|-----------------|-----3-----------|-----------------|-----------------|


   F                                   C                 Csus4
   :   .   .   .     :   .   .   .     :   .   .   .     :   .   .   .
e|-----------------|-----------------|-----------------|-----------------|
B|-----------------|-----------------|-----------------|-----------------|
G|-----------------|-----------------|-----------------|-----------------|
D|-----------------|-----------------|-------------0---|-2-----0h2p0-----|
A|-3-----------3---|-5------h5p3-----|-3-------3-------|-------------3---|
E|-----------------|-----------------|-----------------|-----------------|


   C                 Csus4             C
   :   .   .   .     :   .   .   .     :   .   .   .     :   .   .   .
e|-----------------|-----------------|-----------------|-----------------||
B|-----------------|-----------------|-----------------|-----------------||
G|-----------------|-----------------|-----------------|-----------------||
D|-0h2----h2---0---|-----0---2---2---|-----------------|-----0---2---020-||
A|-----------------|-3---------------|-3-------3---3---|-3---------------||
E|-----------------|-----------------|-----------------|-----------------||


[7th verse]

    C
    :   .   .   .     :   .   .   .     :   .   .   .     :   .   .   .
e||-----------------|-----------------|-----------------|-----------------|
B||-----------------|-----------------|-----------------|-----------------|
G||-----------------|-----------------|-----------------|-----------------|
D||-----------------|-----------------|-----------------|-----------------|
A||-3---------------|-3---5---7---7p5-|-5h7---------5---|-7---5p3--3------|
E||-------------3---|-----------------|-----------------|-------------3---|


   F                                   C
   :   .   .   .     :   .   .   .     :   .   .   .     :   .   .   .
e|-----------------|-----------------|-----------------|-----------------|
B|-----------------|-----------------|-----------------|-----------------|
G|-----------------|-----------------|-----------------|-----------------|
D|-----------------|-----------------|-----------------|-----------------|
A|-----------------|-----------------|---------3---5---|-7---575-3-------|
E|-1---------------|-----------------|-----------------|-------------7---|


    G
    :   .   .   .    :   .   .   .     :   .   .   .     :   .   .   .
e|-----------------|-----------------|-----------------|-----------------|
B|-----------------|-----------------|-----------------|-----------------|
G|-----------------|-----------------|-----------------|-----------------|
D|-----------------|-----------------|-----------------|-----------------|
A|-----------------|-------------5---|---------5-------|-----------------|
E|5p3--------------|-3---5---7-------|-----7-------7---|-5---3---3---3---|


   F                                   C
   :   .   .   .     :   .   .   .     :   .   .   .     :   .   .   .
e|-----------------|-----------------|-----------------|-----------------|
B|-----------------|-----------------|-----------------|-----------------|
G|-----------------|-----------------|-----------------|-----------------|
D|-----------------|-----------------|-----------------|-------------5---|
A|-----------------|-3-------3-------|-3---------------|-3---5(/)7-------|
E|-1-------1---5---|-----5-----------|-------------3---|-----------------|


   C
   :   .   .   .     :   .   .   .     :   .   .   .     :   .   .   .
e|-----------------|-----------------|-----------------|-----------------|
B|-----------------|---------5---6---|-8---------------|-8---6---565-----|
G|-5---------------|-5---7-----------|-----------------|-------------7---|
D|-------------5---|-----------------|-------------5---|-----------------|
A|-----------------|-----------------|-----------------|-----------------|
E|-----------------|-----------------|-----------------|-----------------|

   F                                   C
   :   .   .   .     :   .   .   .     :   .   .   .     :   .   .   .
e|-----------------|-----------------|-----------------|-----------------|
B|-----------------|-----------------|-----------------|-6p5-------------|
G|-5---------------|-----------------|-------------5---|-----7---5-------|
D|-----------------|-----------------|-----------------|-------------5---|
A|-----------------|-----------------|-----------------|-----------------|
E|-----------------|-----------------|-----------------|-----------------|


   G
   :   .   .   .     :   .   .   .     :   .   .   .     :   .   .   .
e|-----------------|-----------------|-----------------|-----------------|
B|-----------------|-----------------|-----------------|-1p0-------------|
G|-4---------------|-----------------|----------0------|-----0-------0---|
D|-----------------|-----------------|-----0-----------|---------0-------|
A|-----------------|-----------------|---2-------------|-----------------|
E|-----------------|-----------------|-3---------------|-----------------|


   F                                   C
   :   .   .   .     :   .   .   .     :   .   .   .     :   .   .   .     :   .   .   .
e|---------1-------|-----------------|-----------------|-----------------|-----------------|
B|-----------------|-----------------|-----------------|-----------------|-----------------|
G|-2---------------|-3p2-------------|-----------------|-----------------|-----------------|
D|-3---------------|-----5p3---------|-----------------|-2---5---2-------|-----------------|
A|-------------3---|---------353-----|-3-------3---5---|-------------5p3-|-3-----------3---|
E|-----------------|-------------5---|-----------------|-----------------|-----------------|


 F
   :   .   .   .     :   .   .   .      :   .    .   .     :   .   .   .
e|-----------------|-----------------|-------------------|-----------------|
B|-----------------|-----------------|-------------------|-----------------|
G|-----------------|-----------------|-------------------|-----------------|
D|-----------------|-----0---3-------|-------------------|-----------------|
A|-----------------|-0---------------|5p3----------------|-----0---3---0---|
E|-1-----------3---|-----------------|----3h5-p3---------|-1---------------|


   C                                   F
   :   .   .   .     :   .   .   .     :   .   .   .     :   .   .   .
e|-----------------|-----------------|-----------------|-----------------|
B|-------------5---|-3---5-------5---|-----------------|-----------------|
G|-------------5---|-4---5-------5---|-----------------|-----------------|
D|-----------------|-----------------|-----------------|-----------------|
A|-3---------------|---------3-------|-----------------|-----3-------0---|
E|-----------------|-----------------|-1-----------1---|-3---------------|


   C                                   G
   :   .   .   .     :   .   .   .     :   .   .   .     :   .   .   .
e|-----0-----------|-----1---1p0-----|-----------------|-----------------|
B|-----------------|-------------1---|1/3--------------|-0---1---0-------|
G|-----0-----------|-----------------|2/4--------------|-0---------------|
D|-----------------|-----------------|-----------------|-------------0---|
A|-3---------------|-----------------|3/5--------------|-----------------|
E|-----------------|-----------------|---------3---3---|-----------------|


   F                                   C                 Csus4
   :   .   .   .     :   .   .   .     :   .   .   .     :   .   .   .
e|-----------------|-----------------|-----------------|-0h1-1-1-1---0---|
B|-----------------|-----------------|---------1-------|-1---1-1-1---1---|
G|-2---------------|-----------------|---------0-------|-0---0---0---0---|
D|-----------------|-----------------|-----------------|-----------------|
A|-------------3---|-5---353-----3---|-3-----------3---|-----------------|
E|-1-----3h5-------|---------5-------|-----------------|-----------------|


   C                 Csus4             C
   :   .   .   .     :   .   .   .     :   .   .   .     :   .   .   .
e|-0---------------|-0h1-1-1-1---0---|-----0-------0---|---1-1-1-1p0-0---||
B|-1-----------1---|-1---1---1---1---|-----1-------1---|-----1---1---1---||
G|-0-------0-------|-----------------|-----0-------0---|-----------------||
D|-----------------|-----------------|-----------------|-----------------||
A|-----------------|-----------------|-3-------3-------|-----------------||
E|-----------------|-----------------|-----------------|-----------------||

[8th verse]

    C
    :   .   .   .     :   .   .   .     :   .   .   .     :   .   .   .
e||-----------------|-----------------|-----------------|-----------------|
B||-----------------|-----------------|-----------------|-----------------|
G||-----------------|-----------------|-----------------|-----------------|
D||-----------------|-----------------|-----------0-2---|-0-------0---2---|
A||-3---------------|-----------------|---------3-------|-----3-----------|
E||-----------------|-----------------|-----------------|-----------------|


   F                                   C
   :   .   .   .     :   .   .   .     :   .   .   .     :   .   .     .
e|-----------------|-----------------|-----------------|-------------------|
B|-----------------|-----------------|-----------------|-------------------|
G|-------------0---|-2---------------|-----------------|-------------------|
D|-3---------------|-----------------|---------5h7-5---|-3-----------------|
A|-----------------|-----------------|-----------------|-----7---5b7r5-3---|
E|-----------------|-----------------|-----------------|-------------------|


   G
   :   .   .   .     :   .   .   .     :   .   .   .     :   .   .   .
e|-----------------|-----------------|-----------------|-----------------|
B|-----------------|-----------------|-----------------|-----------------|
G|-----------------|-----------------|-----------------|-----------------|
D|-----------------|-----0-----------|-----------------|-----------------|
A|-------------0---|-2-------2---3---|-2---0---2p0-----|-----0---2p0-----|
E|-3---------------|-----------------|------------3----|-------------3---|


   F                                   C
   :   .   .   .      :   .   .   .     :   .   .   .     :   .   .   .
e|-----------------|------------------|-----------------|-----------------|
B|-----------------|------------------|-----------------|-----------------|
G|-----------------|------------------|-----------------|-0---------------|
D|-----------------|------------------|-----------0-2---|-----3---2---0---|
A|-----------------|------3---5---5p3-|-3-------3-------|-----------------|
E|-1-----------1---|3/5---------------|-----------------|-----------------|


   C
   :   .   .   .     :   .   .   .     :   .   .   .     :   .   .   .
e|-----------------|-----------------|-----------------|-----------------|
B|-----------------|-----------------|-----5---5p3-3---|-5---5p3-3---5---|
G|-----------------|-----------------|-----------------|-----------------|
D|-0--h2-----------|-----------------|-------------3---|-5---5---3---5---|
A|-----------------|-----------------|-----3---3-------|-----------------|
E|-----------------|---------3---3---|-3---------------|-----------------|


   F                                   C
   :   .   .   .     :   .   .   .     :   .   .   .     :   .    .   .
e|-----------------|-----------------|---------0---0---|-1---0--1p0---0---|
B|-----------------|-----------------|---------1---1---|------------------|
G|-----------------|-----------------|---------0---0---|------------------|
D|-----------------|-----------------|-----------------|------------------|
A|-----------------|-----0---3-------|-3---------------|------------------|
E|-1---------------|-3---------------|-----------------|------------------|


   G
   :   .   .   .     :   .   .   .     :   .    .   .     :   .   .   .
e|-----------------|-----------------|------------------|-----------------|
B|-0---------------|-----------------|-3---1--0h1-0-----|-----------------|
G|-----------------|-----------------|--------------2---|-0---2---0-------|
D|-----------------|-------------0---|------------------|-------------0---|
A|-----------------|-----------------|------------------|-----------------|
E|-----------------|-----------------|------------------|-----------------|


   F                                     C
   :   .   .   .      :   .    .   .     :   .   .   .     :   .   .   .
e|-----------------|-------------------|-----------------|-1---0---0-------|
B|-----------------|-------------------|-------------1---|-----------------|
G|---------2-------|2h3---2------------|---------0-------|-----------------|
D|-3---------------|---------4p3-------|-----------------|-----------------|
A|-------------3---|---------------3---|-3---------------|-----------------|
E|-----------------|-------------------|-----------------|-----------------|


   F
   :   .   .   .     :   .   .   .     :   .   .   .     :   .   .   .
e|---------1-------|-5---6---5-------|-5-------5---5---|-5---6---5-------|
B|---------1-------|-6---6---6-------|-6-------6---6---|-6-------6-------|
G|-2-------2-------|-5-------5-------|-5-------5---5---|-5-------5-------|
D|-----------------|-----------------|-----------------|-----------------|
A|-----------------|-----------------|-----------------|-----------------|
E|-----------------|-----------------|-----------------|-----------------|

   C                                   F
   :   .   .   .     :   .   .   .     :   .   .   .     :   .   .   .
e|-3-------3---5p3-|-----5p3-3-------|-1-----------1---|-1---1---1-------|
B|-5-------5---5---|-----5---5-------|-1-----------1---|-1---1---1-------|
G|-5-------5---5---|-----------------|-2-----------2---|-2---3---3p2-----|
D|-----------------|-----------------|-----------------|-----------------|
A|-----------------|-----------------|-----------------|-----------------|
E|-----------------|-----------------|-----------------|-----------------|


   C                                   G
   :   .   .   .     :   .   .   .     :   .   .   .     :   .   .   .
e|-0---------------|---------0-------|-----------------|-----------------|
B|-1---------------|-----1-----------|---------3---1---|-010-------------|
G|-0---------------|-----------------|-----------------|-----2---0-------|
D|-----------------|-----------------|-----0-----------|-------------0---|
A|-----------------|-----------------|-----------------|-----------------|
E|-----------------|-----------------|-----------------|-----------------|


   F                                   C                 Csus4
   :   .   .   .     :   .   .   .     :   .   .   .     :   .   .   .
e|-----------------|-----------------|---------0---0---|-0-1-1-1-1---0---|
B|-----------------|-----------------|-----------------|-----------------|
G|-----2---2---3---|-2h3-2-----------|-----0-----------|-----------------|
D|-----------------|---------3---3---|-----------------|-----------------|
A|-3---------------|-----------------|-3---------------|-----------------|
E|-----------------|-----------------|-----------------|-----------------|


   C                 Csus4
   :   .   .   .     :   .   .   .
e|-------------0---|-1-1-1-1-1---0---||
B|-1-------1-------|-----------------||
G|-----0-----------|-----------------||
D|-----------------|-----------------||
A|-----------------|-----------------||
E|-----------------|-----------------||

[9th verse]

    C
    :   .   .   .     :   .   .   .     :   .   .   .     :   .   .   .
e||-----------------|-1---0-----------|-----------------|-------------0---|
B||-------------1---|---------1-------|-----------------|-1---2---3-------|
G||---------0-------|-----------------|-------------0---|-----------------|
D||-----------------|-----------------|-----------------|-----------------|
A||-3---------------|-----------------|-----------------|-----------------|
E||-----------------|-----------------|-----------------|-----------------|


 F                                   C
   :   .   .   .     :   .   .   .     :   .   .   .     :   .   .   .
e|(1)--------------|-----------------|-----------------|-----------------|
B|-----------------|-----------------|-------------10--|-8-------8---8---|
G|-----------------|-----------------|-------------10--|-9-------9---9---|
D|-----------------|-----------------|-----------------|-----7-------7---|
A|-----------------|-----------------|-----------------|-----------------|
E|-----------------|-----------------|-----------------|-----------------|


   G
   :   .   .   .     :   .   .   .     :   .   .   .     :   .   .   .
e|-----------------|-----------------|-----------------|-----------------|
B|-8--\6---6---6---|-----------------|-----------------|-----6---6--\3---|
G|-9--\7---7---7---|-----------------|-----------------|-----7---7--\4---|
D|(9)--------------|-----------------|-----------------|-----------------|
A|-----------------|-----------------|-----------------|-----------------|
E|-----------------|-----------------|-----------------|-----------------|


   F                                   C
   :   .   .   .     :   .   .   .     :   .   .   .     :   .   .   .
e|-1-----------1---|-1---1---1---1---|-0-------0---0---|-----------------|
B|-----------------|-----------------|-----------------|-3---5---5---5---|
G|-2---------------|-3---2---3---2---|-0-------0---0---|-----------------|
D|-------------3---|-----------------|-----------------|-3---5---5---5---|
A|-----------------|-----------------|-----------------|-----------------|
E|-----------------|-----------------|-----------------|-----------------|


   C
   :   .   .   .     :   .   .   .     :   .   .   .     :   .   .   .
e|-----------------|-----------------|-----------------|-----------------|
B|-3--/5-----------|-----------------|---------5---6---|-6---8---8---8---|
G|-----------------|-----------------|---------5---7---|-7---9---9---9---|
D|-3--/5-----------|-----------------|-----------------|-----------------|
A|-----------------|-----------------|-----------------|-----------------|
E|-----------------|-----------------|-----------------|-----------------|

   F                                   C
   :   .   .   .     :   .   .   .     :   .   .   .     :   .   .   .
e|-----------------|-----------------|-----------------|-----------------|
B|-10--------------|-----------------|---------8---8---|-10--8---6---5---|
G|-10--------------|-----------------|---------9---9---|-10--9---7---5---|
D|-----------------|-----------------|-----------------|-----------------|
A|-----------------|-----------------|-----------------|-----------------|
E|-----------------|-----------------|-----------------|-----------------|


   G
   :   .   .   .     :   .   .   .     :   .   .   .     :   .   .   .
e|-----------------|-----------------|-----------------|-----------------|
B|-3---------------|-----------------|-----------------|-----0---1p0-----|
G|-4---------------|-----------------|-------------0---|-2-----------0---|
D|-----------------|-----------------|---------0-------|-----------------|
A|-----------------|-----------------|-----------------|-----------------|
E|-----------------|-----------------|-----------------|-----------------|


   F                                   C
   :   .   .   .     :   .   .   .     :   .   .   .     :   .   .   .
e|-----------------|-----------------|---------0-------|-1---0-----------|
B|-----------------|-----------------|-------------1---|---------3---1---|
G|-2---------------|---------3p2-----|-----0-----------|-----------------|
D|-----------------|-----3-------3---|-3---------------|-----------------|
A|-----------------|-3---------------|-----------------|-----------------|
E|-----------------|-----------------|-----------------|-----------------|


   F
   :   .   .   .     :   .   .   .     :   .   .   .     :   .   .   .
e|-----------------|---------5---5---|---------5-------|-6---5-----------|
B|-----------------|---------6---6---|-----------------|---------6-------|
G|(2)--------------|-----5-----------|-----5-------5---|-------------5---|
D|-----------------|-----------------|-----------------|-----------------|
A|-----------------|-----------------|-----------------|-----------------|
E|-----------------|-----------------|-----------------|-----------------|


   C                                   F
   :   .   .   .     :   .   .   .     :   .   .   .     :   .   .   .
e|-----------------|-3---------------|-----------------|-8---------------|
B|-----------------|-----6---5-------|-----------------|-----6-----------|
G|---------5-------|-------------5---|---------5---5---|---------5-------|
D|-5-----------5---|-----------------|-----7-----------|-------------7---|
A|-----------------|-----------------|-----------------|-----------------|
E|-----------------|-----------------|-----------------|-----------------|


   C                                   G
   :   .   .   .     :   .   .   .     :   .   .   .     :   .   .   .
e|-----------------|-----------------|-----------------|-----------------|
B|-----------------|-6---5---3-------|---------3-------|---------3---3---|
G|---------5-------|-------------5---|----(2)----------|-----------------|
D|-5---5-------5---|-----------------|--------------5--|-----5-----------|
A|-----------------|-----------------|-----------------|-----------------|
E|-----------------|-----------------|-----------------|-----------------|


   F                                   C                 Csus4
   :   .   .   .     :   .   .   .     :   .   .   .     :   .   .   .
e|-----------------|-----------------|-----------------|---1-1-1-1---0---|
B|---------1-------|-----------------|---------1-------|---1-1-1-1---1---|
G|-----2-------2---|-3---2-----------|-0---0-----------|-----------------|
D|-3---------------|---------3-------|-----------------|-----------------|
A|-----------------|-------------3---|-------------3---|-----------------|
E|-----------------|-----------------|-----------------|-----------------|


   C                 Csus4             C
   :   .   .   .     :   .   .   .     :   .   .   .     :   .   .   .
e|-------------0---|-0-0-1-1-1---0---|-----------------|-----------------||
B|-----------------|-----------------|-----------------|-----------------||
G|-0-------0-------|-----------------|-----------------|-----------------||
D|-----------------|-----------------|-----------------|-----------------||
A|-----3-----------|-----------------|-----------------|-----------------||
E|-----------------|-----------------|-----------------|-----------------||


[Solo]

    C
    :   .   .   .     :   .   .   .     :   .   .   .     :   .   .   .
e||------------------|-----------------|-----------------|-----------------|
B||*-----5-----3-----|-----5-----3-----|-----5-----3-----|-----5-----------|
G||------------------|-----------------|-----------------|-----------------|
D||------5-------3---|-----5-------3---|-----5-------3---|-----5------(5)--|
A||*-3---------------|-3---------------|-3---------------|-3---------------|
E||----------3-------|---------3-------|---------3-------|---------3-------|


   F                                   C
   :   .   .   .     :   .   .   .     :   .   .   .     :   .   .   .
e|-----------------|-----------------|-----------------|-----------------|
B|-----------------|-----------------|-----5-----3---3-|-----5-----3-----|
G|-----------------|-----------------|-----------------|-------------0h2-|
D|-----------------|-----------------|-----5-------3---|-----5-----3-----|
A|-------------3---|-----------------|-3---------------|-3---------------|
E|-1-------3h5-----|-1-------3h5-5p3-|---------3-------|---------3-------|


   G
   :   .   .   .     :   .   .   .     :   .   .   .     :   .   .   .
e|-----------------|-----------------|-----------------|-----------------|
B|-----------------|-----------------|-----------------|-------------0---|
G|-----4-----------|-----4---------4-|-----4---------4-|-----4---2-------|
D|-----------7--(7)|-----------7-----|-----------7-----|-------------0---|
A|----(5)----------|-----5-------3---|-----5-------3---|-----5---3-------|
E|-3-------3---3---|-3-------3-------|-3-------3-------|-3---------------|


   F                                   C
   :   .   .    .     :   .   .   .     :   .   .   .     :   .   .   .
e|------------------|-----------------|-----------------|------------------||
B|------------------|-----------------|-----5-----3---3-|-----5-----3---3-*||
G|-----2------2---2-|-----2-------2---|-----------------|------------------||
D|------------------|-----------------|-----5-------3---|-----5-------3----||
A|--------------3---|-0---------------|-3---------------|-3---------------*||
E|-1-------3(h5)----|---------3h5-5p3-|---------3-------|---------3--------||


   F
   :   .   .   .     :   .   .   .     :   .   .   .     :   .   .   .
e|-----------------|-----------------|-----------------|-----------------|
B|-----------------|-----------------|-----------------|-----------------|
G|-----2-------2---|-----------------|-----------------|-----------------|
D|-----------------|-----------------|-----3-----3---3-|-----------------|
A|-------------3---|(3)--5---353-----|-------------3---|-5---5p3-3-------|
E|-1-------3h5-----|-------------5p3-|-1-------3h5-----|-------------5p3-|

   C                                   F
   :   .   .   .     :   .   .   .     :   .   .   .     :   .   .   .
e|-----------------|-----------------|-----1-----------|-----1-----------|
B|-----5-----------|-5---------------|-----1-----------|-----1-----------|
G|-----------------|-----------------|-----2-----------|-----2-----------|
D|-----5-----------|-5---53----------|---------------3-|-----------------|
A|-3-------5---7---|---------53--5---|-------------3---|-----------------|
E|-----------------|-----------------|-1-------3p5-----|-1-------3h5-5p3-|


   C                                   G
   :   .   .   .     :   .   .   .     :   .   .   .     :   .   .   .
e|-----------------|-----------------|-----------------|-----------------|
B|-----5-----------|-----5-----------|-----------------|-----------------|
G|-----------------|-----------------|-----4-----------|-----4-----------|
D|-----5-----------|-----------------|-----------7-----|-----------------|
A|-3-------3---5---|-7-------53------|-----5-------3---|-----5-------53--|
E|-----------------|-------------53--|-3-------3-------|-3-------3-------|


   F                                   C                 Csus4
   :   .   .   .     :   .   .   .     :   .   .   .     :   .   .   .
e|-----------------|-----------------|-----------------|-----------------|
B|-----------------|-----------------|-----5-----3---3-|-----5-----3---3-|
G|-----2-----2-----|-----2-----------|-----------------|-----------------|
D|-----3-----3-----|-----3-----------|-----5-------3---|-----5-------3---|
A|-------------0---|-----------------|-3---------------|-3---------------|
E|-1-------3-------|-1-------3h5-1---|---------3-------|---------3-------|


   C                 Csus4 C           C                 Csus4
   :   .   .   .     :   .   .   . :   :   .   .   .     :   .   .   .
e|-----------------|-----------------|-----------------|-----------------||
B|-----5-----3---3-|-----5-----3---3-|-----5-----3---3-|-----5-------5---||
G|-----------------|-----------------|-----------------|-----------------||
D|-----5-------3---|-----5-------3---|-----5-------3---|-----5-------5---||
A|-3---------------|-3---------------|-3---------------|-3---------------||
E|---------3-------|---------3-------|---------3-------|---------3-------||

 [last verse]
    C
    :   .   .   .     :   .   .   .     :   .   .   .     :   .   .   .
e||-----------------|-----------------|-----------------|-----------------|
B||-----------------|-----------------|-----------------|-----------------|
G||-----------------|-----------------|-----------------|-----------------|
D||-----------------|-----------------|-----------------|-------------5---|
A||-3---------------|-3---5---7---5---|-3---------------|-3---5---7-------|
E||-------------3---|-----------------|-------------3---|-----------------|

   F                                   C
   :   .   .   .     :   .   .   .     :   .   .   .     :   .   .   .
e|-----------------|-----------------|-----------------|-----------------|
B|-----------------|-----------------|-----------------|-----------------|
G|-----------------|-----0---2p0-----|-0-------0---2---|-020-------------|
D|-3---------------|-3-----------3---|-----------------|-----3---2-------|
A|-----------------|-----------------|-----------------|-------------2---|
E|-----------------|-----------------|-----------------|-----------------|


   G
   :   .   .   .     :   .   .   .     :   .   .   .     :   .   .   .
e|-----------------|-----------------|-----------------|-----------------|
B|-----------------|-----------------|-----------------|-----------------|
G|-----------------|-----------------|-----------------|-----------------|
D|-----------------|-----------------|-----------------|-----------------|
A|-2---------------|---------2---0---|-0-----------0---|-2---020---------|
E|-----------------|-----------------|-----3-----------|---------3---0---|


   F                                   C
   :   .   .   .     :   .   .   .     :   .   .   .     :   .   .   .
e|-----------------|-----------------|-----------------|-----------------|
B|-----------------|-----------------|-----------------|-----------------|
G|-----------------|-----------------|-----------------|-------------0---|
D|-----------------|-----------------|-----------------|-----0---2-------|
A|-----------------|-----------------|-----------------|-3---------------|
E|-1-----------3---|-5---3---1---5---|-0-------0---3---|-----------------|


   C
   :   .   .   .     :   .   .   .     :   .   .   .     :   .   .   .
e|-----------------|---------0---1---|-3-----------1---|-3---1---010-----|
B|-1---------------|-1---3-----------|-----------------|-------------3---|
G|--------------0--|-----------------|-----------------|-----------------|
D|-----------------|-----------------|-----------------|-----------------|
A|-----------------|-----------------|-----------------|-----------------|
E|-----------------|-----------------|-----------------|-----------------|

   F                                   C
   :   .   .   .     :   .   .   .     :   .   .   .     :   .   .   .
e|-1---------------|-----------------|-----------0-1---|-010-------------|
B|-----------------|-----------------|---------1-------|-----3---1-------|
G|-----------------|-----------------|-----0-----------|-------------0---|
D|-----------------|-----------------|-----------------|-----------------|
A|-----------------|-----------------|-----------------|-----------------|
E|-----------------|-----------------|-----------------|-----------------|


   G
   :   .   .   .     :   .   .   .     :   .   .   .     :   .   .   .
e|-----------------|-----------------|-----------------|-----------------|
B|-0---------------|-----------------|-3---1---010-----|-----------------|
G|-----------------|-----------------|-------------2---|-0---------------|
D|-----------------|-------------0---|-----------------|-----0--h2---0---|
A|-----------------|-----------------|-----------------|-----------------|
E|-----------------|-----------------|-----------------|-----------------|


   F                                   C
   :   .   .   .     :   .   .   .     :   .   .   .     :   .   .   .
e|-----1-----------|-----------------|-----------------|-----------------|
B|---------1-------|-----------------|---------1-------|-1---3---1-------|
G|-------------3---|-2---------------|-----0-------0---|------------(0)--|
D|-----------------|-----------------|-----------------|-----------------|
A|-3---------------|-----------------|-----------------|-----------------|
E|-----------------|-----------------|-----------------|-----------------|


   F
   :   .   .   .     :   .   .   .     :   .   .   .     :   .   .   .
e|-----------------|-----------------|-----------------|-5---5---5---3---|
B|-----------------|-----------------|-------------6---|-6---6---6---5---|
G|-2---------------|-----------------|-----5-------5---|-5---5---5---5---|
D|-----------------|-----------------|-----------------|-----------------|
A|-----------------|-----------------|-----------------|-----------------|
E|-----------------|-----------------|-----------------|-----------------|


   C                                   F
   :   .   .   .     :   .   .   .     :   .   .   .     :   .   .   .
e|---------3-------|-----3-----------|-------------5---|-8---6---565-----|
B|---------5-------|-----5-----------|---------6-------|-------------6---|
G|---------5-------|-----5-----------|-----5-----------|-----------------|
D|-----------------|-----------------|-----------------|-----------------|
A|-----------------|-----------------|-----------------|-----------------|
E|-----------------|-----------------|-----------------|-----------------|


   C                                   G
   :   .   .   .     :   .   .   .     :   .   .   .     :   .   .   .
e|-----------------|-----------------|-----------------|-----------------|
B|-8-----------6---|-5---------------|-----------------|-----3-----------|
G|-----------------|---------7---5---|-4---------------|---4-----4-------|
D|-----------------|-----------------|-----------------|-5-----------5---|
A|-----------------|-----------------|-----------------|-----------------|
E|-----------------|-----------------|-----------------|-----------------|


   F                                   C                 Csus4
   :   .   .   .     :   .   .   .     :   .   .   .     :   .   .   .
e|-----------------|-----------------|-------------3---|-3-3-3-3-3---3---|
B|-----------------|-----------------|---------5-------|-5-6-6-6-6---6---|
G|-----------------|-----------------|-----5-----------|-----------------|
D|-3---------------|-----------------|-----------------|-----------------|
A|-----------------|-----------------|-----------------|-----------------|
E|-----------------|-----------------|-----------------|-----------------|


   C                 Csus4             C
   :   .   .   .     :   .   .   .     :   .   .   .     :   .   .   .
e|-3-------3---3---|-3-3-3-3-3-------|-----------------|-----------------||
B|-5-------5---5---|-5-6-6-6-6-------|---------5-------|---3---3-----5---||
G|-----------------|-----------------|---------5-------|---5---5-----5---||
D|-----------------|-------------3---|---------5-------|-3---3-------5---||
A|-----------------|-----------------|-3-----------3---|---------3-------||
E|-----------------|-----------------|-----------------|-----------------||


Capo 4th fret

[Intro chords]
C   Csus4   C

                C         F      C
They're selling postcards of the hanging
        F                      C
They're painting the passports brown
    G
The beauty parlor is filled with sailors
F                C
The circus is in town
C
Here comes the blind commissioner
        F            C
They've got him in a trance
            G
One hand is tied to the tight-rope walker
    F               C
The other is in his pants
        F
And the riot squad they're restless
     C                 F
They need somewhere to go
   C               G
As Lady and I look out tonight
     F          C
From Desolation Row


(harp key is E)

************************************

| /    Slide up
| h    Hammer-on
| p    Pull-off
| (n)  Ghost note
| \    Slide down
| r    Release
| b    Bend 

************************************
Suggest correction
comments
print report bad tab
6 comments total. Showing first comments.
0 reply
Damascus 154 Feb 28, 2008 01:06 AM

Most excellent. Only one that really sounds right, chord-wise.

0 reply
TomHanks 10 Mar 10, 2008 11:24 PM

Wow, great job on the tab, thank you so much.

0 reply
:.:BWB:.: 10 Dec 11, 2008 05:16 PM

Amazing. Just....Wow!

guest
You may want to rate the tab now too:
select rating
Wanna post a correction for this tab? Suggest correction