Oops, an error
Loading. Please wait.

Do Right To Me Baby Do Unto Others Bass Tab

703 views 3 this week
no commentswrite comment
1 2 3 4 5
please rate
add to favorites
launch autoscroll
font size
0
reset
guitar tuner
Autoscroll
slow
fast
+/-
esc
set tempo
stop
Help us to improve Ultimate-Guitar.com Take our survey!
×
Author
Difficulty
intermediate
Song: Do Right to Me Baby (Do Unto Others)
Artist: Bob Dylan
Album: Slow Train Coming
Tabbed by: Carlos Bergen (bergencarlos@gmail.com)

Intro
G|------------------|4x
D|-----------7-9----|
A|------------------|
E|--7-----7---------|


Verse
G|------------------|------------------|4x
D|-----------7-9----|-----------7-9----|
A|------------------|--7---------------|
E|--7-----7---------|----7---7---------|

Chorus

G|-----------------|-----------------|-----------------|-----------------|
D|-----------------|-----------------|-----------------|-----------------|
A|--5----7---------|--5----7---------|--5----7---------|--5--5----7--7/--|
E|------------7-7--|------------7-7--|------------7-7--|-----------------|

Verse
G|------------------|------------------|5x
D|-----------7-9----|-----------7-9----|
A|------------------|--7---------------|
E|--7-----7---------|----7---7---------|

Chorus

G|-----------------|----------------|-----------------|----------------9---|
D|-----------------|----------------|-----------------|------------------9-|
A|--5----7---7-----|-5----7---7-----|--5----7---7-----|-5--5-5--5-7-7--7---|
E|------------7-7--|-----------7-7--|------------7-7--|---7---7----------7-|

Bridge
G|------------------|-------------------|
D|-----------7-9----|-----------7-9-----|
A|-7----------------|---------------7-9-|
E|---7----7---------|----7--7-7---------|

Verse
G|------------------|------------------|4x
D|-----------7-9----|-----------7-9----|
A|------------------|--7---------------|
E|--7-----7---------|----7---7---------|


Chorus

G|-----------------|----------------|-----------------|--------------------|
D|-----------------|----------------|-----------------|--------------------|
A|--5----7---7-----|--5----7---7----|--5----7---7-----|-5--5-5--5-7-7--7---|
E|------------7-7--|-----------7-7--|------------7-7--|---7---7----------7-|

Bridge
G|------------------|-----------9-9-----|
D|-----------7-9----|-------------------|
A|-7----------------|---------------9-7-|
E|---7----7---------|----7--7-7---------|


Verse
G|------------------|------------------|4x
D|-----------7-9----|-----------7-9----|
A|------------------|--7---------------|
E|--7-----7---------|----7---7---------|

Chorus

G|-----------------|-----------------|-----------------|--------------------|
D|-----------------|-----------------|-----------------|--------------------|
A|--5----7---7-----|--5----7---7-----|--5----7---7-----|-5--5-5--5-7-7------|
E|------------7-7--|------------7-7--|------------7-7--|---7-7--7-------7-7-|

Bridge
G|------------------|--9-7--------------|
D|-----------7-9----|-------9-7---------|
A|-7----------------|------------9-7----|
E|---7----7---------|-------------------|


Verse
G|------------------|------------------|4x
D|-----------7-9----|-----------7-9----|
A|------------------|--7---------------|
E|--7-----7---------|----7---7---------|


Chorus

G|-----------------|-----------------|-----------------|-----7-7------------|
D|-----------------|-----------------|-----------------|--------------------|
A|--5----7---7-----|--5----7---7-----|--5----7---7-----|-5--5-5-5--5-7------|
E|------------7-7--|------------7-7--|------------7-7--|----------------7-7-|

Bridge
G|------------------|-------------------|
D|-----------7-9----|-----------7-9-----|
A|-7----------------|---------------7-9-|
E|---7----7---------|----7--7-7---------|

Outro
G|------------------|Repeat until the end of the song
D|-----------7-9----|
A|------------------|
E|--7-----7---------|
Suggest correction
What's this?
You can suggest a correction to this tab. Community and Mods will review your correction and vote to approve or reject it.
comments
We did not receive enough feedback on this tab! Please rate:
print report bad tab
1 2 3 4 5
guest
You may want to rate the tab now too:
select rating
Please do not post tabs as comments. Select "correction" instead!