Oops, an error
Loading. Please wait.

Forever Young Tab

version 1
version 1

Whole song

Interactive

33,546 views 24 this week
1 commentread comment
1 2 3 4 5
accurate
x 3
add to favorites
launch autoscroll
font size
0
reset
how to read this tab
guitar tuner
Autoscroll
slow
fast
+/-
esc
set tempo
stop
Help us to improve Ultimate-Guitar.com Take our survey!
×
Author
Difficulty
Tuning
intermediate
D# G# C# F# A# D#
                                Forever Young                                   
								  Bob Dylan
								
Tabbed by DaveR
This tab corresponds to the all-acoustic version found on Biograph.
Other versions recorded by Dylan are *completely* different.
Produced by Guitar Pro 5


      Q    Q    Q    Q       Q    Q    Q    Q       Q    Q    Q    Q     
D#||----------------------|----------------------|----------------------|
A#||----------------------|-------0---------1----|-------0--------------|
F#||----------------------|-------0---------0----|-------0--------------|
C#||------------0---------|--0----0---------2----|-------0---------0----|
G#||----------------------|-------2---------3----|-------2--------------|
D#||-----------------3----|-------3----3---------|--3---------3---------|
 
 
                                                            May  God   
  Q    Q    E   E  Q       Q    Q    Q    Q       Q    Q    Q    Q     
------------------------|----------------------|----------------------|
-------------------1----|-------0---------0----|-------0---------0----|
-------------------0----|-------0---------0----|-------0---------0----|
-------0----0h--0--2----|-------0---------0----|-------0---------0----|
------------2h--3-------|-------2---------2----|-------2---------2----|
--3---------------------|--3---------3---------|--3---------3---------|
 
 
  bless and  keep you     al-  ways May  your    wish- es   all  come  
  Q     Q    Q    Q       Q    Q    Q    Q       Q     Q    Q    Q     
-----------------------|----------------------|-----------------------|
--------0---------0----|-------0---------0----|--------1---------1----|
--------0---------0----|-------0---------0----|--------0---------0----|
--------0---------0----|-------0---------0----|--------2---------2----|
--------2---------2----|-------2---------2----|--3----------3---------|
--3----------3---------|--3---------3---------|-----------------------|
 
 
  true                                    Mayyou    al-  ways do   for   
  Q    Q    Q    Q       Q    E   E  Q    Q         Q    Q    Q    Q     
----------------------|--------------------------|----------------------|
-------0---------0----|--------------1----1------|-------0---------0----|
-------0---------0----|--------------0----0------|-------0---------0----|
-------0---------0----|-------0---0--2----2------|-------0---------0----|
-------2---------2----|-------2h--3-------3------|-------2---------2----|
--3---------3---------|--3-----------------------|--3---------3---------|
 
 
  o-   thers And  let     o-   thers do   for     you                  
  Q    Q     Q    Q       Q    Q     Q    Q       Q    Q    Q    Q     
-----------------------|-------2----------2----|-------2---------2----|
-------0----------0----|-------3----------3----|-------3---------3----|
-------0----------0----|-------2----------2----|-------2---------2----|
-------0----------0----|--0---------------0----|--0---------0---------|
-------2----------2----|-------------3---------|----------------------|
--3----------3---------|-----------------------|----------------------|
 
 
            May  you     build a    lad- der     to   the  stars And   
  Q    Q    Q    Q       Q     Q    Q    Q       Q    Q    Q     Q     
-------2---------2----|-----------------------|-----------------------|
-------3---------3----|--------0----1----1----|-------0----------0----|
-------2---------2----|--------0----0----0----|-------0----------0----|
--0---------0---------|--------0----2----2----|-------0----------0----|
----------------------|--------2----3----3----|-------2----------2----|
----------------------|--3--------------------|--3---------3----------|
 
 
  climb on   eve- ry      rung                             And may you   
  Q     Q    Q    Q       Q    Q    Q    Q       Q    Q    E   E   Q     
-----------------------|----------------------|-------------------------|
--------1---------1----|-------1---------1----|-------1-----------------|
--------0---------0----|-------2---------2----|-------2------------0----|
--------2---------2----|-------2---------2----|-------2----0h--2--------|
--3----------2---------|--0---------0---------|--0----------------------|
-----------------------|----------------------|-------------------------|
 
 
  stay                        for- ev-  er      young                 
  Q    Q    Q    Q       Q    Q    Q    Q       Q     Q    Q    Q     
----------------------|-------2---------2----|-----------------------|
-------0---------0----|-------3---------3----|--------0---------1----|
-------0---------0----|-------2---------2----|--------0---------0----|
-------0---------0----|--0---------0---------|--------0---------2----|
-------2---------2----|----------------------|--------2---------3----|
--3---------3---------|----------------------|--3----------3---------|
 
 
            May  you     stay                        for- ev-  er    
  Q    Q    Q    Q       Q    Q    Q    Q       Q    Q    Q    Q     
----------------------|----------------------|-------2---------2----|
-------1---------1----|-------0---------0----|-------3---------3----|
-------0---------0----|-------0---------0----|-------2---------2----|
-------2---------2----|-------0---------0----|--0---------0---------|
--3----3----3----3----|-------2---------2----|----------------------|
----------------------|--3---------3---------|----------------------|
 
 
  young                                                     May  you   
  Q     Q    Q    Q       Q    Q    E  E  Q       Q    Q    Q    Q     
-----------------------|-------3-------3-------|----------------------|
--------1--------------|-------0---------------|-------0---------0----|
--------0--------------|-------0---------------|-------0---------0----|
--------2---------2----|-------0----------0----|-------0---------0----|
--3----------2----0----|-------2---------------|-------2---------2----|
-----------------------|--3---------3----------|--3---------3---------|
 
 
  growup      to   be      righ- teous May  you     growup      to   be    
  Q      Q    Q    Q       Q     Q     Q    Q       Q      Q    Q    Q     
------------------------|------------------------|------------------------|
---------0---------1----|--------0----------0----|---------1---------1----|
---------0---------0----|--------0----------0----|---------0---------0----|
---------0---------2----|--------0----------0----|---------2---------2----|
---------2---------3----|--------2----------2----|--3-----------3---------|
--3-----------3---------|--3-----------3---------|------------------------|
 
 
  true                              May  you     al-  ways know the   
  Q    Q    E  E  Q       Q    Q    Q    Q       Q    Q    Q    Q     
---------------3-------|--3-------------------|----------------------|
-------0-------0--0----|--0--------------0----|-------0---------0----|
-------0-------0--0----|--0----0---------0----|-------0---------0----|
-------0----------0----|--0----0---------0----|-------0---------0----|
-------2---------------|-------2---------2----|-------2---------2----|
--3---------3----------|-------3----3---------|--3---------3---------|
 
 
  truth and  see  the     lights sur- roun- ding    you                   
  Q     Q    Q    Q       Q      Q    Q     Q       Q    Q    E  E  Q     
-----------------------|---------3----------3----|-------2-------2-------|
--------0---------0----|---------3----------3----|-------3-------3-------|
--------0---------0----|---------0----------2----|-------2-------2-------|
--------0---------0----|-------------------------|--0---------0-----0----|
--------2---------2----|--0-----------0----------|-----------------------|
--3----------3---------|-------------------------|-----------------------|
 
 
            May  you     always      be   cour-    age- ous       Stand  
  Q    Q    Q    Q       Q      Q    Q    Q        Q    Q    Q    Q      
-------2---------2----|-------------------------|-----------------------|
--3----3---------3----|---------0---------0-----|-------0---------0-----|
--2--------------2----|---------0---------0-----|-------0---------0-----|
------------0---------|---------0---------0-----|-------0---------0-----|
----------------------|---------2----2----2-----|-------2---------2-----|
----------------------|--3----------------------|--3---------3----------|
 
 
  upright      and  be      strong                         And  may    you   
  Q       Q    Q    Q       Q      Q    E  E  Q       Q    Q    E   E  Q     
-------------------------|-------------------------|------------------------|
----------1---------1----|---------1-------1--1----|-------1----------------|
----------0---------0----|---------2-------2--2----|-------2-----------0----|
----------2---------2----|---------2-------2--2----|-------2----0h--2-------|
--3------------2---------|--0-----------0----------|--0---------------------|
-------------------------|-------------------------|------------------------|
 
 
  stay                         for- ev-  er      young                    
  Q    Q    E  E  Q       Q    Q    Q    Q       E     E  Q    Q    Q     
---------------3--3----|-------2---------2----|--------------------------|
-------0-------0--0----|-------3---------3----|-----------0---------0----|
-------0-------0--0----|-------2---------2----|-----------0---------0----|
-------0-------0--0----|--0---------0---------|-----------0---------0----|
-------2---------------|----------------------|-----------2---------2----|
--3---------3----------|----------------------|--2h----3-------3---------|
 
 
            May  you     stay                        for- ev-  er    
  Q    Q    Q    Q       Q    Q    Q    Q       Q    Q    Q    Q     
----------------------|----------------------|-------2---------2----|
-------1---------1----|-------0---------0----|-------3---------3----|
-------0---------0----|-------0---------0----|-------2---------2----|
-------2---------2----|-------0---------0----|--0---------0---------|
--3---------3---------|-------2---------2----|----------------------|
----------------------|--3---------3---------|----------------------|
 
 
  young                                                                 
  Q     Q    Q    Q       Q    Q    Q    Q       Q    E   E  Q    Q     
-----------------------|----------------------|------------------------|
--------1---------1----|-------0---------0----|--------------1---------|
--------0---------0----|-------0---------0----|--------------0----0----|
--------2---------2----|-------0---------0----|-------0h--0--2----0----|
--3----------3---------|-------2---------2----|-------2h--3-------2----|
-----------------------|--3---------3---------|--3----------------3----|
 
 
                                   May  your    hands al-  ways be    
  Q    Q    Q    Q       Q    Q    Q    Q       Q     Q    Q    Q     
----------------------|----------------------|-----------------------|
-------0---------0----|-------0---------0----|--------0---------1----|
-------0---------0----|-------0---------0----|--------0---------0----|
-------0---------0----|-------0---------0----|--------0---------2----|
-------2---------2----|-------2---------2----|--------2---------3----|
--3---------3---------|--3---------3---------|--3----------3---------|
 
 
  bus- y    May  your    feet al-  ways be      swift                  
  Q    Q    Q    Q       Q    Q    Q    Q       Q     Q    E  E  Q     
----------------------|----------------------|----------------3--3----|
-------0---------0----|-------1---------1----|----------------0--0----|
-------0---------0----|-------0---------0----|----------------0--0----|
-------0---------0----|-------2---------2----|----------------0--0----|
-------2---------2----|--3---------2---------|----------------2--2----|
--3---------3---------|----------------------|--3----------3--3--3----|
 
 
            May  you     have a    strong    foun-    da-  tion when the   
  Q    Q    Q    Q       Q    Q    E      E  Q        Q    Q    Q    Q     
----------------------|----------------------------|----------------------|
-------0---------0----|-------0--------------1-----|-------0---------0----|
-------0---------0----|-------0--------------0-----|-------0---------0----|
-------0---------0----|-------0--------------2-----|-------0---------0----|
-------2---------2----|-------2----2h-----3--3-----|-------2---------2----|
--3---------3---------|--3-------------------------|--3---------3---------|
 
 
  winds of   chan- ges     shift                                         
  Q     Q    Q     Q       Q     Q    Q    Q       Q    Q    E  E  Q     
------------------------|--------2---------2----|-------2-------2--2----|
--------2----------2----|--------3---------3----|-------3-------3--3----|
--------0----------0----|--------2---------2----|-------2-------2--2----|
--------2----------2----|--0----------0---------|--0---------0----------|
--0----------0----------|-----------------------|-----------------------|
------------------------|-----------------------|-----------------------|
 
 
            May  your    heart al-  ways be      joy- ful  May  your  
  Q    Q    Q    Q       Q     Q    Q    Q       Q    Q    Q    Q     
-------2---------2----|-----------------------|----------------------|
-------3---------3----|--------0---------0----|-------0---------0----|
-------2---------2----|--------0---------0----|-------0---------0----|
--0---------0---------|--------0---------0----|-------0---------0----|
----------------------|--------2---------2----|-------2---------2----|
----------------------|--3----------3---------|--3---------3---------|
 
 
  song al-  ways be      sung                                Andmayyou       
  Q    Q    Q    Q       Q    Q    E  E  Q       E   E  Q    Q         Q     
----------------------|-----------------------|-----------------------------|
-------1---------1----|-------1-------1--1----|---------1--------------1----|
-------0---------0----|-------2-------2--2----|---------0--------------0----|
-------2---------2----|-------2-------2--2----|--0h--2--2----2---------2----|
--3---------2---------|--0---------0----------|-----------------------------|
----------------------|-----------------------|-----------------------------|
 
 
  stay                         for- ev-  er      young                 
  Q    E  E  Q    Q       Q    Q    Q    Q       Q     Q    Q    Q     
----------3------------|-------2---------2----|-----------------------|
-------0---------------|-------3---------3----|--------0--------------|
-------0---------------|-------2---------2----|--------0--------------|
-------0---------------|--0---------0---------|--------0--------------|
-------2-----2----3----|----------------------|--------2----0----2----|
--3--------------------|----------------------|--3--------------------|
 
 
            May  you     stay                        for- ev-  er    
  Q    Q    Q    Q       Q    Q    Q    Q       Q    Q    Q    Q     
-------0---------0----|----------------------|-------2---------2----|
-------1---------1----|-------0---------0----|-------3---------3----|
-------0---------0----|-------0---------0----|-------2---------2----|
-------2---------2----|-------0---------0----|--0---------0---------|
--3---------3---------|-------2---------2----|----------------------|
----------------------|--3---------3---------|----------------------|
 
 
  young                                                                  
  Q     Q    E  E  Q       Q    Q    E   E  Q       Q    Q    Q    Q     
----------------3--3----|------------------------|-------2--------------|
--------0-------0--0----|-------1----------------|-------3--------------|
--------0-------0--0----|-------0-----------0----|-------2--------------|
--------0-------0--0----|-------2----0h--2-------|--0-------------------|
--------2-------2--2----|--3---------------------|------------2----3----|
--3----------3----------|------------------------|----------------------|
 
 
                                                       ^              
  Q    Q    Q    Q       Q    E   E  Q    Q       Q    H.             
-------2--------------|------------------------|-------3------------||
-------3--------------|------------------------|-------0------------||
-------2--------------|--------------0----0----|-------0------------||
--0-------------------|-------0---0--2----0----|-------0------------||
----------------------|-------2h--3-------2----|-------2------------||
------------0----2----|--3----------------3----|--3----3------------||
 
 
 
 
Duration Legend
---------------
W - whole
H - half
Q - quarter
E - 8th
S - 16th
T - 32nd
X - 64th
. - note dotted
|-n-|  - n-tuplets

Suggest correction new What's this?
You can suggest a correction to this tab. Community and Mods will review your correction and vote to approve or reject it.
comments
We did not receive enough feedback on this tab! Please rate:
print report bad tab
1 2 3 4 5
1 comment total.
0 reply
rolo101 32 wrote on August 31 2009, 02:24 pm

awesome song its beutiful
:)

guest
You may want to rate the tab now too:
select rating
Please do not post tabs as comments. Select "correction" instead!