Oops, an error
Loading. Please wait.

Forever Young Acoustic chords

version 6
version 6

Interactive

4,849 views 66 this week
2 commentsread comments
1 2 3 4 5
x 11
add to favorites
×
Save as Personal and add changes to this tab that will be seen only by you. Learn more ›
×
You can save this tab as Personal to edit and correct it or add notes. All changes will be seen only by you. Learn more »
launch autoscroll
font size
0
reset
transpose
0
reset
simplify chords
display chords
guitar tuner
edit
Autoscroll
slow
fast
+/-
esc
set tempo
stop
Strumming
There is no strumming pattern for this song yet. and get +5 IQ
---------------------------------------------------------------------------
         Forever Young (Acoustic Publishing Demo) – Bob Dylan
---------------------------------------------------------------------------
Tabbed by: maguri
Tuning: Half-step down

Bob Dylan
Forever Young (Acoustic Publishing Demo) (1973)
(Dylan)

First released on "Biograph" (1975); now on "Side Tracks" (2013)
Recorded in New York City 6/73

---------------------------------------------------------------------------

tuning: half-step down
play: G
key: F#

---------------------------------------------------------------------------

CODA
  G                C                D
  1 + 2 + 3 + 4 +  1 + 2 + 3 + 4 +  1 + 2 + 3 + 4 +  1 + 2 + 3 + 4 +
e|----3-------3---|----0-------0---|----2-----------|----2-----------|
B|----0-------0---|----1-------1---|----3-----------|----3-----------|
G|----0-------0---|----0-------0---|----2-----------|----2-----------|
D|----0-------0---|--------0h2-----|0---------------|0---------------|
A|----------------|3---------------|--------2---3---|----------------|
E|3---------------|----------------|----------------|--------0---2---|

  G        C/G     G
  1 + 2 + 3 + 4 +  1 + 2 + 3 + 4 +  
e|----3-----------|----3-----------|
B|----0-----1-----|----0-----------|
G|----0-----0-----|----0-----------|
D|----0-----2-----|----0-----------|
A|----------------|----------------|
E|3-------3---3---|3---3-----------|

---------------------------------------------------------------------------

INTRO
| G C/G | G | G C/G | G |


VERSE
        G
May God bless and keep you always
         C               G     C/G
May your wishes all come true
        G 
May you always do for others
        D      C      D
And let others do for you
          G     C/G    G     
May you build a ladder to the stars
     C       C/B   Am
And climb on every rung
            G   D        G
And may you stay forever young
C/G        G   D        C     C/B C/A | G |
   May you stay forever young


VERSE
        G          C/G G
May you grow up to be  righteous 
        C             G
May you grow up to be true
        G
May you always know the truth 
            A7                 D
And see the lights surrounding you 
        G      C/G   G
May you always be courageous 
      C       C/B    Am
Stand upright and be strong 
            G   D        G
And may you stay forever young
C          G   D        C/G      | G C/G | G |
   May you stay forever young


VERSE
         G       C/G     G
May your hands always be busy 
         C      C/B     G
May your feet always be swift
        G      C/G        G
May you have a strong foundation 
         A7               D
When the winds of changes shift 
         G       C/G     G
May your heart always be joyful 
         C      C/B     Am
May your song always be sung 
        G    G/B G/C D        G     G/A G/B [ C ]
May you stay          forever young
C         G   G/B G/C D       [ G ]
  May you stay          forever young

CODA
| G | C | D | D | G C/G | G

            
            
Suggest correction
Creating personal tab
Creating personal tab
You can edit any tab online and save it as your Personal.

You can edit, replace or remove any tab part or add personal notes – all changes will be seen only by you.

Personal tabs can be accessed anytime from any device, even offline.
Learn more »
comments
print report bad tab
2 comments total.
0 reply
Johner357 10 Jul 16, 2017 01:36 AM

💣

guest
You may want to rate the tab now too:
select rating
Wanna post a correction for this tab? Suggest correction