Oops, an error
Loading. Please wait.

I Was Young When I Left Home tab

version 1
version 1

Whole song

Interactive

34,304 views 63 this week
5 commentsread comments
1 2 3 4 5
x 21
add to favorites
×
Save as Personal and add changes to this tab that will be seen only by you. Learn more ›
×
You can save this tab as Personal to edit and correct it or add notes. All changes will be seen only by you. Learn more »
launch autoscroll
font size
0
reset
how to read this tab
guitar tuner
edit
Autoscroll
slow
fast
+/-
esc
set tempo
stop
[Intro]
      G'
      :   .   .   .     :   .   .   .
D|------0-------0-----|---0-------0-----|
B|------------------3-|-----------------|
G|--3/4-----4---------|-------4-------3/|
D|--------0-------0---|-----0-------0---|
G|----0-------0-------|-0-------0-------|
D|--------------------|-----------------|

            "D" G    "C"
    :   .   .   .     :   .   .   .     :   .   .   .
D|----0-------------|---0-------0-----|---0-------0-----|
B|------------------|-----------------|-------1---------|
G|--4-----4\2-0-----|-------0-------0-|---------------0h|
D|------0-------0-2-|-----2-------2---|-----2-------2---|
G|--0-------0-------|-0-------0-------|-0-------0-------|
D|------------------|-----------------|-----------------|

   "D"               "C"
    :   .   .   .     :   .   .   .
D|----0-------0-----|---0-------0-----|
B|------------------|-----------------|
G|--2-----2---------|-------0-------2/|
D|------0-------0-0-|h2---2-------0---|
G|--0-------0-------|-0-------0-------|
D|------------------|-----------------|

    G'     "D"  G     G
    :   .   .   .     .
D|----0-------------|---0-------0-------|-0-------0-----|
B|------------------|-------------------|---------------|
G|-/4-----4\2-0---0-|-------0-------0---|-----0-------0-|
D|------0-------0---|-----0-------0-----|---0-------0---|
G|--0-------0-------|-0-------0-------0-|-------0-------|
D|------------------|-------------------|---------------|


************************************

| /  Slide up
| .  Staccato
| h  Hammer-on
| \  Slide down

************************************

            
            
Suggest correction
Creating personal tab
Creating personal tab
You can edit any tab online and save it as your Personal.

You can edit, replace or remove any tab part or add personal notes – all changes will be seen only by you.

Personal tabs can be accessed anytime from any device, even offline.
Learn more »
comments
print report bad tab
5 comments total. Showing first comments.
+5 reply
Thursdae 112 Jul 03, 2008 07:32 AM

Give credit where credit is due: http://dylanchords.info/

+1 reply
max1989 10 Apr 15, 2010 11:37 AM

Well, you kind of did. And it's called plagiarism.

+1 reply
alaw4516 20 Oct 31, 2010 06:11 PM

You manipulated me and I think less of you.

- Your Mom

guest
You may want to rate the tab now too:
select rating
Wanna post a correction for this tab? Suggest correction