Oops, an error
Loading. Please wait.

It Aint Me Babe Tab

version 1
version 1

Whole song

Interactive

16,793 views 6 this week
no commentswrite comment
1 2 3 4 5
please rate
add to favorites
launch autoscroll
font size
0
reset
how to read this tab
guitar tuner
Tab Pro tools
  • play this tab
  • loop segment
  • change instrument
  • show fretboard
  • metronome
×
Best way to learn
"It Aint Me Babe"
Autoscroll
slow
fast
+/-
esc
set tempo
stop
     Q    E  E  E  E  Q       E   E  E  E  E  E  Q       Q    E  E  E  E  Q     
E||--3-------------3-------|--3---------------3-------|--3-------------0-------|
B||----------0-------------|--0h--1-----1-------------|----------0-------------|
G||-------0-----------0----|---------0-----------0----|-------0-----------0----|
D||-------------0----------|---------------2----------|-------------0----------|
A||------------------------|--------------------------|------------------------|
E||--3---------------------|--3-----------------------|--3---------------------|


  Q    E  E  E  E  Q         Q    E  E  E  E  Q       Q    E  E  E  E  Q     
--3-------------3-------||---3-------------3-------|--3-------------3-------|
----------0-------------||-----------0-------------|----------0-------------|
-------0-----------0----||*-------0-----------0----|-------0-----------0----|
-------------0----------||*-------------0----------|-------------0----------|
------------------------||-------------------------|------------------------|
--3---------------------||---3---------------------|--3---------------------|


  Q    E  E  E  E  Q       Q    E  E  E  E  Q       Q    E  E  E  E  Q     
--0-------------0-------|--0-------------0-------|--3-------------3-------|
----------1-------------|----------1-------------|----------0-------------|
-------0-----------0----|-------0-----------0----|-------0-----------0----|
-------------2----------|-------------2----------|-------------0----------|
--3---------------------|--3---------------------|------------------------|
------------------------|------------------------|--3---------------------|


  Q    E  E  E  E  Q       Q    E  E  E  E  Q       E   E  E  E  E  E  Q     
--2-------------2-------|--3-------------3-------|--3---------------3-------|
----------3-------------|----------0-------------|--0h--1-----1-------------|
-------2-----------2----|-------0-----------0----|---------0-----------0----|
--0----------0----------|-------------0----------|---------------2----------|
------------------------|------------------------|--------------------------|
------------------------|--3---------------------|--3-----------------------|


  Q    E  E  E  E  Q       Q    E  E  E  E  Q       Q    E  E  E  E  Q     
--3-------------3-------|--3-------------3-------|--3-------------3-------|
----------0-------------|----------0-------------|----------0-------------|
-------0-----------0----|-------0-----------0----|-------0-----------0----|
-------------0----------|-------------0----------|-------------0----------|
------------------------|------------------------|------------------------|
--3---------------------|--3---------------------|--3---------------------|


  Q    E  E  E  E  Q       Q    E  E  E  E  Q       Q    E  E  E  E  Q     
--3-------------3-------|--0-------------0-------|--0-------------0-------|
----------0-------------|----------1-------------|----------1-------------|
-------0-----------0----|-------0-----------0----|-------0-----------0----|
-------------0----------|-------------2----------|-------------2----------|
------------------------|--3---------------------|--3---------------------|
--3---------------------|------------------------|------------------------|


  Q    E  E  E  E  Q       Q    E  E  E  E  Q       Q    E  E  E  E  Q     
--3-------------3-------|--2-------------2-------|--3-------------3-------|
----------0-------------|----------3-------------|----------0-------------|
-------0-----------0----|-------2-----------2----|-------0-----------0----|
-------------0----------|--0----------0----------|-------------0----------|
------------------------|------------------------|------------------------|
--3---------------------|------------------------|--3---------------------|


  E   E  E  E  E  E  Q       Q    E  E  E  E  Q       Q    E  E  E  E  Q     
--3---------------3-------|--3-------------3-------|--3-------------3-------|
--0h--1-----1-------------|----------0-------------|----------0-------------|
---------0-----------0----|-------0-----------0----|-------0-----------0----|
---------------2----------|-------------0----------|-------------0----------|
--------------------------|------------------------|------------------------|
--3-----------------------|--3---------------------|--3---------------------|


  Q    E  E  E  E  Q       Q    E  E  E  E  Q       Q    E  E  E  E  Q     
--2-------------2-------|--2-------------2-------|--0-------------0-------|
----------3-------------|----------3-------------|----------1-------------|
-------4-----------4----|-------4-----------4----|-------2-----------2----|
-------------4----------|-------------4----------|-------------2----------|
--2---------------------|--2---------------------|--0---------------------|
------------------------|------------------------|------------------------|


  Q    E  E  E  E  Q       Q    E  E  E  E  Q       Q    E  E  E  E  Q     
--0-------------0-------|--2-------------2-------|--2-------------2-------|
----------1-------------|----------3-------------|----------3-------------|
-------2-----------2----|-------4-----------4----|-------4-----------4----|
-------------2----------|-------------4----------|-------------4----------|
--0---------------------|--2---------------------|--2---------------------|
------------------------|------------------------|------------------------|


  Q    E  E  E  E  Q       Q    E  E  E  E  Q       Q    E  E  E  E  Q     
--0-------------0-------|--0-------------0-------|--2-------------2-------|
----------1-------------|----------1-------------|----------3-------------|
-------2-----------2----|-------2-----------2----|-------4-----------4----|
-------------2----------|-------------2----------|-------------4----------|
--0---------------------|--0---------------------|--2---------------------|
------------------------|------------------------|------------------------|


  Q    E  E  E  E  Q       Q    E  E  E  E  Q       Q    E  E  E  E  Q     
--2-------------2-------|--0-------------0-------|--0-------------0-------|
----------3-------------|----------1-------------|----------1-------------|
-------4-----------4----|-------2-----------2----|-------2-----------2----|
-------------4----------|-------------2----------|-------------2----------|
--2---------------------|--0---------------------|--0---------------------|
------------------------|------------------------|------------------------|


  Q    E  E  E  E  Q       Q    E  E  E  E  Q       Q    E  E  E  E  Q     
--2-------------2-------|--2-------------2-------|--0-------------0-------|
----------3-------------|----------3-------------|----------1-------------|
-------4-----------4----|-------4-----------4----|-------2-----------2----|
-------------4----------|-------------4----------|-------------2----------|
--2---------------------|--2---------------------|--0---------------------|
------------------------|------------------------|------------------------|


  Q    E  E  E  E  Q       Q    E  E  E  E  Q       Q    E  E  E  E  Q     
--0-------------0-------|--0-------------0-------|--0-------------0-------|
----------1-------------|----------1-------------|----------1-------------|
-------2-----------2----|-------0-----------0----|-------0-----------0----|
-------------2----------|-------------2----------|-------------2----------|
--0---------------------|--3---------------------|--3---------------------|
------------------------|------------------------|------------------------|


  Q    E  E  E  E  Q       Q    E  E  E  E  Q       Q    E  E  E  E  Q     
--2-------------2-------|--2-------------2-------|--2-------------2-------|
----------3-------------|----------3-------------|----------3-------------|
-------2-----------2----|-------2-----------2----|-------2-----------2----|
--0----------0----------|--0----------0----------|--0----------0----------|
------------------------|------------------------|------------------------|
------------------------|------------------------|------------------------|


  Q    E  E  E  E  Q       Q    E  E  E  E  Q       Q    E  E  E  E  Q     
--3-------------3-------|--3-------------3-------|--0-------------0-------|
----------0-------------|----------0-------------|----------1-------------|
-------0-----------0----|-------0-----------0----|-------0-----------0----|
-------------0----------|-------------0----------|-------------2----------|
------------------------|------------------------|--3---------------------|
--3---------------------|--3---------------------|------------------------|


  Q    E  E  E  E  Q       Q    E  E  E  E  Q       Q    E  E  E  E  Q     
--2-------------2-------|--3-------------3-------|--0-------------0-------|
----------3-------------|----------0-------------|----------1-------------|
-------2-----------2----|-------0-----------0----|-------0-----------0----|
--0----------0----------|-------------0----------|-------------2----------|
------------------------|------------------------|--3---------------------|
------------------------|--3---------------------|------------------------|


  Q    E  E  E  E  Q       Q    E  E  E  E  Q       Q    E  E  E  E  Q     
--2-------------2-------|--3-------------3-------|--3-------------3-------|
----------3-------------|----------0-------------|----------0-------------|
-------2-----------2----|-------0-----------0----|-------0-----------0----|
--0----------0----------|-------------0----------|-------------0----------|
------------------------|------------------------|------------------------|
------------------------|--3---------------------|--3---------------------|


  E   E  E  E  E  E  Q       Q    E  E  E  E  Q       Q    E  E  E  E  Q     
--3---------------3-------|--3-------------3-------|--0-------------0-------|
--0h--1-----1-------------|----------0-------------|----------1-------------|
---------0-----------0----|-------0-----------0----|-------0-----------0----|
---------------2----------|-------------0----------|-------------2----------|
--------------------------|------------------------|--3---------------------|
--3-----------------------|--3---------------------|------------------------|


  Q    Q    Q    Q       Q    E  E  E  E  Q       Q    E  E  E  E  Q       
----------------------|------------------------|-------------------------||
--3---------1---------|--0-------------0-------|--1-------------1--------||
----------------------|----------0-------------|----------0-------------*||
-------0---------0----|-------0-----------0----|-------2-----------2----*||
----------------------|------------------------|-------------------------||
--3---------2---------|--3----------3----------|--3----------3-----------||


  H        H                      
--------------------|-----------||
--0-----------------|-----------||
--0-----------------|-----------||
--0-----------------|-----------||
--------------------|-----------||
--3-----------------|-----------||




Duration Legend
---------------
W - whole
H - half
Q - quarter
E - 8th
S - 16th
T - 32nd
X - 64th
. - note dotted
|-n-|  - n-tuplets


Tablature Legend
----------------
L - tied note
x - dead note
g - grace note
(n) - ghost note
> - accentuded note
NH - natural harmonic
AH - artificial harmonic
TH - tapped harmonic
SH - semi harmonic
PH - pitch harmonic
h - hammer on
p - pull off
b - bend
br - bendRelease
pb - preBend
pbr - preBendRelease
brb - bendReleaseBend
\n/ - tremolo bar dip
\n - tremolo bar dive
-/n - tremolo bar Release up
/n\ - tremolo bar inverted dip
/n - tremolo bar return
-\n - tremolo bar Release down
S - shift slide
s - legato slide
/ -  slide into from below or out of upwards
\ -  slide into from above or out of downwards
~ - vibrato
W - wide vibrato
tr - trill
TP - tremolo picking
T - tapping
S - slap
P - pop
< - fade in
^ - brush up
v - brush down
comments
We did not receive enough feedback on this tab! Please rate:
print report bad tab
1 2 3 4 5
I want to post or [tab]
guest
You may want to rate the tab now too:
select rating
Please do not post tabs as comments. Select "correction" instead!