Oops, an error
Loading. Please wait.

Just Like A Woman bass

version 1
version 1

Whole song

Interactive

463 views 3 this week
no commentswrite comment
1 2 3 4 5
2 more votes to show rating
add to favorites
×
Save as Personal and add changes to this tab that will be seen only by you. Learn more ›
×
You can save this tab as Personal to edit and correct it or add notes. All changes will be seen only by you. Learn more »
launch autoscroll
font size
0
reset
guitar tuner
edit
Autoscroll
slow
fast
+/-
esc
set tempo
stop
Author
Difficulty
Artist: Bob Dylan
Album: Blonde On Blonde
Song: Just Like A Woman
Bassist: Henry Strzelecki
Tuning: Standard(EADG)

Intro
G|----2~-4~--------------------2~-4~------------------------------------------|
D|-2~-------2~-----2~-----2~-2-------2~-----2~-----2~-------------------------|
A|-------------2h4----2h4---------------2h4----2h4----------------------------|
E|----------------------------------------------------------------------------|

Verse 1 (Nobody feels any pain...)
G|------2~-4~-------------------2~-4~-----------------------------------------|
D|-2~-2------2~-----2~-----2~-2-------2~-----2~-4-2---------------------------|
A|--------------2h4----2h4---------------2h4--------4-0~-2~2-0~-2~------------|
E|----------------------------------------------------------------------------|

G|-2~-1~----------------------------------------------------------------------|
D|-------4~-2~-1--------------------------------------------------------------|
A|---------------4-2-0-2~-2-3-4~-2~-0~-2~-2-2-2~-2-4--------------------------|
E|----------------------------------------------------------------------------|

Chorus 1 (She takes just like ...)
G|----------------------------------------------------------------------------|
D|-1-2~-1~----------2/4-2-2~-1~--------2-4--------2~2~-1~-------------------2~|
A|---------4-2-0~0~-------------4-2-0~-----0~-2h4---------4-2-0~0~0-2~2~2~2~--|
E|----------------------------------------------------------------------------|

|------------------------------------Lick-------------------------------------|

Verse 2 (Queen Mary she's my...)
G|------------2~-4~--------------------2~-4~----------------------------------|
D|-----1-2~-2-------2~-----2~-----2~-2-------2~-----2~-4-2--------------------|
A|-2-4-----------------2h4----2h4---------------2h4--------4-0~-0-2~-0~-0-2~--|
E|----------------------------------------------------------------------------|

G|-2~-1~----------------------------------------------------------------------|
D|-------4~-2~-1--------------------------------------------------------------|
A|---------------4-2-0-2~-2-3-4~-4-2~-0~-2~-2~-2~-2-4-------------------------|
E|----------------------------------------------------------------------------|

Chorus 2 (She takes just like ...)
G|----------------------------------------------------------------------------|
D|-1-2~-2~-1~--------2h4--------2-2~-1~--------2-4--------2~-2~-1~------------|
A|------------4-2-0~-----0~-2h4---------4-2-0~-----0~-2h4----------4-2-0~0~-0~|
E|----------------------------------------------------------------------------|

G|----------------------------------------------------------------------------|
D|----------2~2~--------------------------------------------------------------|
A|-2~2~2~2~-------------------------------------------------------------------|
E|----------------------------------------------------------------------------|

|------------------------------------Lick-------------------------------------|

Bridge (It was raining from ...)
G|----------------------------------------------------------------------------|
D|-2-4-5-6~---6~---6~---6~-6-5-4-2~-2~-----2~-----2~--------------------------|
A|----------6----6----6----------------2h4----2h4-----------------------------|
E|----------------------------------------------------------------------------|

G|----------------------------------------------------------------------------|
D|-2-4-6~---6~-6~---6~-6-6-7~---7~-7------------------------------------------|
A|-~------6-------6-----------7------2~-2~-2~-2~-2~-2~-2~---------------------|
E|----------------------------------------------------------------------------|

Verse 3 (That I just can't ...)
G|------------2~-4~--------------------2~-4~----------------------------------|
D|-----1-2~-2-------2~-----2~-----2~-2-------2~-----2~-4-2--------------------|
A|-2-4-----------------2h4----2h4---------------2h4--------4-0~-2~-0~-2~------|
E|----------------------------------------------------------------------------|

G|-2~-1~----------------------------------------------------------------------|
D|-------4~-2~-1--------------------------------------------------------------|
A|---------------4-2-0-2~-2-3-4~-4~-2~-0~-2~-2~-2~-2h4------------------------|
E|----------------------------------------------------------------------------|

Chorus 3 (Ah you fake ...)
G|----------------------------------------------------------------------------|
D|-1-2~-1~--------2h4----------2~-1~--------2-4----------2~-1~----------------|
A|---------4-2-0~-----0~-0-2-4-------4-2-0~-----0~-0-2-4-------4-2-0~-0~-0~---|
E|----------------------------------------------------------------------------|

G|----------------------------------------------------------------------------|
D|----------2~2~--------------------------------------------------------------|
A|-2~2~2~2~-------------------------------------------------------------------|
E|----------------------------------------------------------------------------|

|------------------------------------Lick-------------------------------------|

Verse 4 (Harmonica)
G|----------2~-4~--------------------2~-4~------------------------------------|
D|-2/4-2~-2-------2~-----2~-----2~-2-------2~-----2~-4-2----------------------|
A|-------------------2h4----2h4---------------2h4--------4-0~-0-2~2-0~-0-2~-2~|
E|----------------------------------------------------------------------------|

G|-2~-1~----------------------------------------------------------------------|
D|-------4~-2~-1--------------------------------------------------------------|
A|---------------4-2-0-2~-2-3-4~-4-4-2~-0~-2~-2~-2~-2-4-----------------------|
E|----------------------------------------------------------------------------|

Chorus 4 (Harmonica)
G|----------------------------------------------------------------------------|
D|-1-2~-2~-1~--------2h4--------2-2~-2-1~--------2-4--------2-2~-2~-1~--------|
A|------------4-2-0~-----0~-2h4-----------4-2-0~-----0~-2/4------------4-2-0~-|
E|----------------------------------------------------------------------------|

G|----------------------------------------------------------------------------|
D|-2h4----------------2~2~----------------------------------------------------|
A|-----0~-0~-2~2~2~2~---------------------------------------------------------|
E|----------------------------------------------------------------------------|

|------------------------------------Lick-------------------------------------|

End with:
G|----------------------------------------------------------------------------|
D|-2~-------------------------------------------------------------------------|
A|----------------------------------------------------------------------------|
E|----------------------------------------------------------------------------|

Key:                   Note: Listen carefully to the notes that you
h- hammer-on                 got to let ring, for most of them are
~- let ring                  played between short periods of time
/- slide                     dispite being separated by a ''-''.

Please rate and leave a comment! Thank you!

            
            
Suggest correction
Creating personal tab
Creating personal tab
You can edit any tab online and save it as your Personal.

You can edit, replace or remove any tab part or add personal notes – all changes will be seen only by you.

Personal tabs can be accessed anytime from any device, even offline.
Learn more »
Give kudos to tab author, rate the tab!
1 2 3 4 5
comments
print report bad tab
guest
You may want to rate the tab now too:
select rating
Wanna post a correction for this tab? Suggest correction