Oops, an error
Loading. Please wait.

Maggies Farm tab

version 1
version 1

Whole song

Interactive

364 views 3 this week
no commentswrite comment
1 2 3 4 5
3 more votes to show rating
add to favorites
×
Save as Personal and add changes to this tab that will be seen only by you. Learn more ›
×
You can save this tab as Personal to edit and correct it or add notes. All changes will be seen only by you. Learn more »
launch autoscroll
font size
0
reset
how to read this tab
guitar tuner
edit
Autoscroll
slow
fast
+/-
esc
set tempo
stop
Author
Difficulty
MAGGIE'S FARM

As recorded by Bob Dylan
(From the 1965 Album BRINGING IT ALL BACK HOME)

Words and Music by Bob Dylan

Transcribed by Slowhand


Gtr I (E A D G B E) - 'Bob Dylan - Acoustic Guitar'
Gtr II (E A D G B E) - 'John P. Hammond - Electric Guitar'
Gtr III (E A D G B E) - 'Bruce Langhorne - Electric Guitar'
Gtr IV (E A D G B E) - 'Bob Dylan - Harmonica'


 Intro
  Q=170(8=s8)
  G
 4/4
  Gtr I (Ac. Gtr.)
  H    E E E E   Q  Q  E E E E
|--------------|-3--3--3-3-3-3-|
|--------------|-3--3--3-3-3-3-|
|--------3-3-0-|-4--4--4-4-4-4-|
|--------3-3-0-|-5--5--5-5-5-5-|
|--------------|-5--5--5-5-5-5-|
|--------------|-3--3--3-3-3-3-|
|
| Gtr II (Clean El. Gtr.)
| W              W
|--------------|---------------|
|--------------|---------------|
|--------------|---------------|
|--------------|---------------|
|--------------|---------------|
|--------------|---------------|


  Q   Q        E    E    E E    Q     Q  E E E E
|-3---3--------3----3----3-3-|--3-----3--3-3-3-3-|
|-3---3--------3----3----3-3-|--3-----3--3-3-3-3-|
|-4---4--------4----4----4-4-|--4-----4--4-4-4-4-|
|-5---5--------5----5----5-5-|--5-----5--5-5-5-5-|
|-5---5--------5----5----5-5-|--5-----5--5-5-5-5-|
|-3---3--------3----3----3-3-|--3-----3--3-3-3-3-|
|
| Q   Q       +E    Q.          Q     Q  H
|----------------------------|-------------------|
|----13b15===(13)r-13b15-----|-13b15-------------|
|----------------------------|-------------------|
|----------------------------|-------------------|
|----------------------------|-------------------|
|----------------------------|-------------------|


                               Chorus
                                G7         G7sus4G7        G7sus4G7        G7sus4
                                Gtrs I, III (Ac. & El. Gtr.)
  Q   Q        E    E    E E     Q  Q  E E E E   Q  Q  E E E E   Q  Q  E E E E
|-3---3--------3----3----3-3-||--3--3--3-3-3-3-|-3--3--3-3-3-3-|-3--3--3-3-3-3-|
|-3---3--------3----3----3-3-||--3--3--3-3-3-3-|-3--3--3-3-3-3-|-3--3--3-3-3-3-|
|-4---4--------4----4----4-4-||--4--4--4-4-5-5-|-4--4--4-4-5-5-|-4--4--4-4-5-5-|
|-5---5--------5----5----5-5-||--3--3--3-3-3-3-|-3--3--3-3-3-3-|-3--3--3-3-3-3-|
|-5---5--------5----5----5-5-||--5--5--5-5-5-5-|-5--5--5-5-5-5-|-5--5--5-5-5-5-|
|-3---3--------3----3----3-3-||--3--3--3-3-3-3-|-3--3--3-3-3-3-|-3--3--3-3-3-3-|
|
| Q   Q       +E    Q.           H     H         W               W
|----------------------------||----------------|---------------|---------------|
|----13b15===(13)r-13b15-----||-11-------------|---------------|---------------|
|----------------------------||----------------|---------------|---------------|
|----------------------------||----------------|---------------|---------------|
|----------------------------||----------------|---------------|---------------|
|----------------------------||----------------|---------------|---------------|


  G7        G7sus4G7        G7sus4G7        G7sus4G7        G7sus4
  Q  Q  E E E E   Q  Q  E E E E   Q  Q  E E E E   Q  Q  E E E E
|-3--3--3-3-3-3-|-3--3--3-3-3-3-|-3--3--3-3-3-3-|-3--3--3-3-3-3-|
|-3--3--3-3-3-3-|-3--3--3-3-3-3-|-3--3--3-3-3-3-|-3--3--3-3-3-3-|
|-4--4--4-4-5-5-|-4--4--4-4-5-5-|-4--4--4-4-5-5-|-4--4--4-4-5-5-|
|-3--3--3-3-3-3-|-3--3--3-3-3-3-|-3--3--3-3-3-3-|-3--3--3-3-3-3-|
|-5--5--5-5-5-5-|-5--5--5-5-5-5-|-5--5--5-5-5-5-|-5--5--5-5-5-5-|
|-3--3--3-3-3-3-|-3--3--3-3-3-3-|-3--3--3-3-3-3-|-3--3--3-3-3-3-|
|
| W               W               W               W
|---------------|---------------|---------------|---------------|
|---------------|---------------|---------------|---------------|
|---------------|---------------|---------------|---------------|
|---------------|---------------|---------------|---------------|
|---------------|---------------|---------------|---------------|
|---------------|---------------|---------------|---------------|


  G7        G7sus4G7                  G7sus4
  Q  Q  E E E E   Q   Q        E    E E  E
|-3--3--3-3-3-3-|-3---3--------3----3-3--3-|
|-3--3--3-3-3-3-|-3---3--------3----3-3--3-|
|-4--4--4-4-5-5-|-4---4--------4----4-5--5-|
|-3--3--3-3-3-3-|-3---3--------3----3-3--3-|
|-5--5--5-5-5-5-|-5---5--------5----5-5--5-|
|-3--3--3-3-3-3-|-3---3--------3----3-3--3-|
|
| W               Q   Q       +E    Q    E
|---------------|--------------------------|
|---------------|----13b15===(13)r-13---11-|
|---------------|--------------------------|
|---------------|--------------------------|
|---------------|--------------------------|
|---------------|--------------------------|


  G7                G7sus4G7                  G7sus4
    Q   Q    E   E  E E   Q   Q        E    E E  E
|---3---3----3---3--3-3-|-3---3--------3----3-3--3-||
|---3---3----3---3--3-3-|-3---3--------3----3-3--3-||
|---4---4----4---4--5-5-|-4---4--------4----4-5--5-||
|---3---3----3---3--3-3-|-3---3--------3----3-3--3-||
|---5---5----5---5--5-5-|-5---5--------5----5-5--5-||
|---3---3----3---3--3-3-|-3---3--------3----3-3--3-||
|
|  +H       +E   Q.       Q   Q       +E    Q    E
|-----------------------|--------------------------||
|-(11)-----(11)---------|----13b15===(13)r-13---11-||
|---------------10------|--------------------------||
|-----------------------|--------------------------||
|-----------------------|--------------------------||
|-----------------------|--------------------------||


   1st - 4th Verses
    $
    $$
    G7           G7sus4G7            G7sus4G7
      Q   Q  E E E E   Q  Q   E    E E E
||----3---3--3-3-3-3-|-3--3---3----3-3-3-|
||o---3---3--3-3-3-3-|-3--3---3----3-3-3-|
||----4---4--4-4-5-5-|-4--4---4----4-5-5-|
||----3---3--3-3-3-3-|-3--3---3----3-3-3-|
||o---5---5--5-5-5-5-|-5--5---5----5-5-5-|
||----3---3--3-3-3-3-|-3--3---3----3-3-3-|
|
|    +Q   Q  H         H      Q      Q
||-------------------|-------------------|
||o-(11)-------------|-------10b11-------|
||-------------------|-------------------|
||-------------------|-------------------|
||o------------------|-------------------|
||-------------------|-------------------|


                G7sus4 G7                G7sus4
   Q     Q  E E  E E    Q     Q   E    E E E
|--3-----3--3-3--3-3-|--3-----3---3----3-3-3--|
|--3-----3--3-3--3-3-|--3-----3---3----3-3-3--|
|--4-----4--4-4--5-5-|--4-----4---4----4-5-5--|
|--3-----3--3-3--3-3-|--3-----3---3----3-3-3--|
|--5-----5--5-5--5-5-|--5-----5---5----5-5-5--|
|--3-----3--3-3--3-3-|--3-----3---3----3-3-3--|
|
|  Q     Q  Q    Q      Q     Q   Q      Q
|--------------------|------------------------|
|-13b15---------13---|-13b15-----13b15--------|
|--------------------|------------------------|
|--------------------|------------------------|
|--------------------|------------------------|
|--------------------|------------------------|


  G7            G7sus4G7                G7sus4G7
  Q  Q  E  E    E E    Q     Q   E    E E E
|-3--3--3--3----3-3-|--3-----3---3----3-3-3-|
|-3--3--3--3----3-3-|--3-----3---3----3-3-3-|
|-4--4--4--4----5-5-|--4-----4---4----4-5-5-|
|-3--3--3--3----3-3-|--3-----3---3----3-3-3-|
|-5--5--5--5----5-5-|--5-----5---5----5-5-5-|
|-3--3--3--3----3-3-|--3-----3---3----3-3-3-|
|
| H     E  Q      E    Q     Q   Q      Q
|-------------------|-----------13b15-------|
|---------10b11-----|-13b15-----------------|
|-------------------|-----------------------|
|-------------------|-----------------------|
|-------------------|-----------------------|
|-------------------|-----------------------|


                    G7sus4G7              G7
   Q     Q  E  E    E E   Q   Q      E  E E E
|--3-----3--3--3----3-3-|-3---3------3--3-3-3-||
|--3-----3--3--3----3-3-|-3---3------3--3-3-3-||
|--4-----4--4--4----5-5-|-4---4------4--4-5-5-||
|--3-----3--3--3----3-3-|-3---3------3--3-3-3-||
|--5-----5--5--5----5-5-|-5---5------5--5-5-5-||
|--3-----3--3--3----3-3-|-3---3------3--3-3-3-||
|
|  Q     Q  E  Q.         Q   E  E  +Q    Q
|-13b15-----------------|---------------------||
|-------------13b15-----|----11---------------||
|-----------------------|-------12-(12)-------||
|-----------------------|---------------------||
|-----------------------|---------------------||
|-----------------------|---------------------||


 Pre-Chorus
  Em
  Q   Q        E    E    E E    Q      Q         E  E E E
|-0---0--------0----0----0-0-|--0------0---------0--0-0-0-|
|-0---0--------0----0----0-0-|--0------0---------0--0-0-0-|
|-0---0--------0----0----0-0-|--0------0---------0--0-0-0-|
|-2---2--------2----2----2-2-|--2------2---------2--2-2-2-|
|-2---2--------2----2----2-2-|--2------2---------2--2-2-2-|
|-0---0--------0----0----0-0-|--0------0---------0--0-0-0-|
|
| Q   Q       +E    Q.          Q      E     E  +H
|----------------------------|----------------------------|
|----15b17===(15)r-15b17-----|----------------------------|
|----------------------------|-14b16--14b16-12-(12)-------|
|----------------------------|----------------------------|
|----------------------------|----------------------------|
|----------------------------|----------------------------|


  D
  Q  Q  E E E E   Q  Q  E E E E
|-2--2--2-2-2-2-|-2--2--2-2-2-2-||
|-3--3--3-3-3-3-|-3--3--3-3-3-3-||
|-2--2--2-2-2-2-|-2--2--2-2-2-2-||
|-0--0--0-0-0-0-|-0--0--0-0-0-0-||
|---------------|---------------||
|---------------|---------------||
|
| W               W
|---------------|---------------||
|---------------|---------------||
|---------------|---------------||
|---------------|---------------||
|---------------|---------------||
|---------------|---------------||


 Chorus
  G7          G7sus4G7           G7sus4
  Q  Q  E E   E E   Q     Q  E E E  E
|-3--3--3-3---3-3-|-3-----3--3-3-3--3-|
|-3--3--3-3---3-3-|-3-----3--3-3-3--3-|
|-4--4--4-4---5-5-|-4-----4--4-4-5--5-|
|-3--3--3-3---3-3-|-3-----3--3-3-3--3-|
|-5--5--5-5---5-5-|-5-----5--5-5-5--5-|
|-3--3--3-3---3-3-|-3-----3--3-3-3--3-|
|
| H     E Q.        Q     Q  Q   Q
|-----------------|-------------------|
|-----------------|-------------------|
|---------3b5-----|-5b7===5--5---5r---|
|-----------------|-------------------|
|-----------------|-------------------|
|-----------------|-------------------|
|
| Gtr IV (Harmonica arr. for Gtr.)
| W                 W
|-----------------|-------------------|
|-----------------|-------------------|
|-----------------|-------------------|
|-----------------|-------------------|
|-----------------|-------------------|
|-----------------|-------------------|


                                  To Coda
                                  To Coda
  G7           G7sus4    G7         G7sus4
  Q  Q  E E     E   E    Q  Q  E  E E  E
|-3--3--3-3-----3---3--|-3--3--3--3-3--3--||
|-3--3--3-3-----3---3--|-3--3--3--3-3--3--||
|-4--4--4-4-----5---5--|-4--4--4--4-5--5--||
|-3--3--3-3-----3---3--|-3--3--3--3-3--3--||
|-5--5--5-5-----5---5--|-5--5--5--5-5--5--||
|-3--3--3-3-----3---3--|-3--3--3--3-3--3--||
|
| Q  Q  E E    +E  +E    Q  Q  Q    Q
|----------------------|------------------||
|----------------------|------------------||
|-3-------5b7==(5)r(5)-|-4-----2----------||
|----------------------|------------------||
|----------------------|------------------||
|----------------------|------------------||
|
| W                      H     E  Q    E
|----------------------|------------------||
|----------------------|------------------||
|----------------------|---------16-------||
|----------------------|--------------17--||
|----------------------|------------------||
|----------------------|------------------||


 Interlude
  1.
  G7          G7sus4  G7               G7sus4 G7        G7sus4G7        G7sus4
   Q  Q  E  E  E  E     Q      Q   E E  E E   Q  Q  E E E E   Q  Q  E E E E
|--3--3--3--3--3--3-|---3------3---3-3--3-3-|-3--3--3-3-3-3-|-3--3--3-3-3-3-||
|--3--3--3--3--3--3-|---3------3---3-3--3-3-|-3--3--3-3-3-3-|-3--3--3-3-3-3-||
|--4--4--4--4--5--5-|---4------4---4-4--5-5-|-4--4--4-4-5-5-|-4--4--4-4-5-5-||
|--3--3--3--3--3--3-|---3------3---3-3--3-3-|-3--3--3-3-3-3-|-3--3--3-3-3-3-||
|--5--5--5--5--5--5-|---5------5---5-5--5-5-|-5--5--5-5-5-5-|-5--5--5-5-5-5-||
|--3--3--3--3--3--3-|---3------3---3-3--3-3-|-3--3--3-3-3-3-|-3--3--3-3-3-3-||
|
| Gtr IV
|  Q  Q  E  E  E  E    +E   Q.     Q    Q     W               W
|----------------17-|-(17)-15---------------|---------------|---------------||
|-------------15----|-----------------------|---------------|---------------||
|-16-------16-------|-------------16--------|---------------|---------------||
|-------------------|------------------17---|---------------|---------------||
|-------------------|-----------------------|---------------|---------------||
|-------------------|-----------------------|---------------|---------------||


 Chorus
  G7        G7sus4G7        G7sus4G7        G7sus4G7        G7sus4
  Q  Q  E E E E   Q  Q  E E E E   Q  Q  E E E E   Q  Q  E E E E
|-3--3--3-3-3-3-|-3--3--3-3-3-3-|-3--3--3-3-3-3-|-3--3--3-3-3-3-|
|-3--3--3-3-3-3-|-3--3--3-3-3-3-|-3--3--3-3-3-3-|-3--3--3-3-3-3-|
|-4--4--4-4-5-5-|-4--4--4-4-5-5-|-4--4--4-4-5-5-|-4--4--4-4-5-5-|
|-3--3--3-3-3-3-|-3--3--3-3-3-3-|-3--3--3-3-3-3-|-3--3--3-3-3-3-|
|-5--5--5-5-5-5-|-5--5--5-5-5-5-|-5--5--5-5-5-5-|-5--5--5-5-5-5-|
|-3--3--3-3-3-3-|-3--3--3-3-3-3-|-3--3--3-3-3-3-|-3--3--3-3-3-3-|


  G7        G7sus4G7        G7sus4G7        G7sus4G7        G7sus4
  Q  Q  E E E E   Q  Q  E E E E   Q  Q  E E E E   Q  Q  E E E E
|-3--3--3-3-3-3-|-3--3--3-3-3-3-|-3--3--3-3-3-3-|-3--3--3-3-3-3-|
|-3--3--3-3-3-3-|-3--3--3-3-3-3-|-3--3--3-3-3-3-|-3--3--3-3-3-3-|
|-4--4--4-4-5-5-|-4--4--4-4-5-5-|-4--4--4-4-5-5-|-4--4--4-4-5-5-|
|-3--3--3-3-3-3-|-3--3--3-3-3-3-|-3--3--3-3-3-3-|-3--3--3-3-3-3-|
|-5--5--5-5-5-5-|-5--5--5-5-5-5-|-5--5--5-5-5-5-|-5--5--5-5-5-5-|
|-3--3--3-3-3-3-|-3--3--3-3-3-3-|-3--3--3-3-3-3-|-3--3--3-3-3-3-|


  G7        G7sus4G7        G7sus4G7               G7sus4G7        G7sus4
  Q  Q  E E E E   Q  Q  E E E E    Q       Q   E E E E   Q  Q  E E E E
|-3--3--3-3-3-3-|-3--3--3-3-3-3-|--3-------3---3-3-3-3-|-3--3--3-3-3-3--||
|-3--3--3-3-3-3-|-3--3--3-3-3-3-|--3-------3---3-3-3-3-|-3--3--3-3-3-3-o||
|-4--4--4-4-5-5-|-4--4--4-4-5-5-|--4-------4---4-4-5-5-|-4--4--4-4-5-5--||
|-3--3--3-3-3-3-|-3--3--3-3-3-3-|--3-------3---3-3-3-3-|-3--3--3-3-3-3--||
|-5--5--5-5-5-5-|-5--5--5-5-5-5-|--5-------5---5-5-5-5-|-5--5--5-5-5-5-o||
|-3--3--3-3-3-3-|-3--3--3-3-3-3-|--3-------3---3-3-3-3-|-3--3--3-3-3-3--||
|
| Gtr II
| W               W                Q       Q   H         W
|---------------|---------------|----------------------|----------------||
|---------------|---------------|----------------------|---------------o||
|---------------|---------------|-10b12===10r----------|----------------||
|---------------|---------------|----------------------|----------------||
|---------------|---------------|----------------------|---------------o||
|---------------|---------------|----------------------|----------------||


 Interlude
  2.
  G7            G7sus4    G7           G7sus4
   Q     Q  E E E  E        Q   Q  E E E  E
|--3-----3--3-3-3--3----|---3---3--3-3-3--3----|
|--3-----3--3-3-3--3----|---3---3--3-3-3--3----|
|--4-----4--4-4-5--5----|---4---4--4-4-5--5----|
|--3-----3--3-3-3--3----|---3---3--3-3-3--3----|
|--5-----5--5-5-5--5----|---5---5--5-5-5--5----|
|--3-----3--3-3-3--3----|---3---3--3-3-3--3----|
|
| Gtr II
|  Q     Q  Q   E  E       +Q   Q  Q   E  E
|-----------------------|----------------------|
|-----------------------|----------------------|
|-10b12-----------10b12-|-(10)-----------10b12-|
|-----------------------|----------------------|
|-----------------------|----------------------|
|-----------------------|----------------------|


  G7           G7sus4    G7           G7sus4
    Q   Q  E E E  E        Q   Q  E E E  E
|---3---3--3-3-3--3----|---3---3--3-3-3--3----||
|---3---3--3-3-3--3----|---3---3--3-3-3--3----||
|---4---4--4-4-5--5----|---4---4--4-4-5--5----||
|---3---3--3-3-3--3----|---3---3--3-3-3--3----||
|---5---5--5-5-5--5----|---5---5--5-5-5--5----||
|---3---3--3-3-3--3----|---3---3--3-3-3--3----||
|
|  +Q   Q  Q   E  E       +Q   Q  Q   E  E
|----------------------|----------------13b15-||
|----------------------|----------------------||
|-(10)-----------10b12-|-(10)-----------------||
|----------------------|----------------------||
|----------------------|----------------------||
|----------------------|----------------------||


 Chorus
  G7           G7sus4G7            G7sus4G7
    Q   Q  E E E E   Q   Q     E E E E
|---3---3--3-3-3-3-|-3---3-----3-3-3-3-|
|---3---3--3-3-3-3-|-3---3-----3-3-3-3-|
|---4---4--4-4-5-5-|-4---4-----4-4-5-5-|
|---3---3--3-3-3-3-|-3---3-----3-3-3-3-|
|---5---5--5-5-5-5-|-5---5-----5-5-5-5-|
|---3---3--3-3-3-3-|-3---3-----3-3-3-3-|
|
|  +Q   Q  H         Q   Q     H
|-(13)-------------|-------------------|
|------------------|----13b15----------|
|------------------|-------------------|
|------------------|-------------------|
|------------------|-------------------|
|------------------|-------------------|


                 G7sus4      G7        G7sus4
  Q  Q  E  E       E    E    Q  Q  E E E E
|-3--3--3--3-------3----3--|-3--3--3-3-3-3-|
|-3--3--3--3-------3----3--|-3--3--3-3-3-3-|
|-4--4--4--4-------5----5--|-4--4--4-4-5-5-|
|-3--3--3--3-------3----3--|-3--3--3-3-3-3-|
|-5--5--5--5-------5----5--|-5--5--5-5-5-5-|
|-3--3--3--3-------3----3--|-3--3--3-3-3-3-|
|
| H     E  E      +E   +E    W
|--------------------------|---------------|
|---------13b15==(13)r(13)-|---------------|
|--------------------------|---------------|
|--------------------------|---------------|
|--------------------------|---------------|
|--------------------------|---------------|


  G7        G7sus4G7        G7sus4G7        G7sus4G7        G7sus4
  Q  Q  E E E E   Q  Q  E E E E   Q  Q  E E E E   Q  Q  E E E E
|-3--3--3-3-3-3-|-3--3--3-3-3-3-|-3--3--3-3-3-3-|-3--3--3-3-3-3-|
|-3--3--3-3-3-3-|-3--3--3-3-3-3-|-3--3--3-3-3-3-|-3--3--3-3-3-3-|
|-4--4--4-4-5-5-|-4--4--4-4-5-5-|-4--4--4-4-5-5-|-4--4--4-4-5-5-|
|-3--3--3-3-3-3-|-3--3--3-3-3-3-|-3--3--3-3-3-3-|-3--3--3-3-3-3-|
|-5--5--5-5-5-5-|-5--5--5-5-5-5-|-5--5--5-5-5-5-|-5--5--5-5-5-5-|
|-3--3--3-3-3-3-|-3--3--3-3-3-3-|-3--3--3-3-3-3-|-3--3--3-3-3-3-|


                                   Interlude
                    D.S. al Coda &
  G7        G7sus4G7        G7sus4  G7            G7sus4G7        G7sus4
  Q  Q  E E E E   Q  Q  E E E E     Q  Q  E  E    E E   Q  Q  E E E E
|-3--3--3-3-3-3-|-3--3--3-3-3-3--||-3--3--3--3----3-3-|-3--3--3-3-3-3-|
|-3--3--3-3-3-3-|-3--3--3-3-3-3--||-3--3--3--3----3-3-|-3--3--3-3-3-3-|
|-4--4--4-4-5-5-|-4--4--4-4-5-5--||-4--4--4--4----5-5-|-4--4--4-4-5-5-|
|-3--3--3-3-3-3-|-3--3--3-3-3-3--||-3--3--3--3----3-3-|-3--3--3-3-3-3-|
|-5--5--5-5-5-5-|-5--5--5-5-5-5--||-5--5--5--5----5-5-|-5--5--5-5-5-5-|
|-3--3--3-3-3-3-|-3--3--3-3-3-3--||-3--3--3--3----3-3-|-3--3--3-3-3-3-|
|
| Gtr II
| W               W                 H     E  Q.         W
|---------------|----------------||-------------------|---------------|
|---------------|----------------||---------10b11-----|---------------|
|---------------|----------------||-------------------|---------------|
|---------------|----------------||-------------------|---------------|
|---------------|----------------||-------------------|---------------|
|---------------|----------------||-------------------|---------------|


  G7                G7sus4 G7        G7sus4G7
  Q       Q    E  E E  E   Q  Q  E E E E
|-3-------3----3--3-3--3-|-3--3--3-3-3-3-|
|-3-------3----3--3-3--3-|-3--3--3-3-3-3-|
|-4-------4----4--4-5--5-|-4--4--4-4-5-5-|
|-3-------3----3--3-3--3-|-3--3--3-3-3-3-|
|-5-------5----5--5-5--5-|-5--5--5-5-5-5-|
|-3-------3----3--3-3--3-|-3--3--3-3-3-3-|
|
| E  Q       E E  Q    E   W
|-----------10-----------|---------------|
|---10b11----------------|---------------|
|----------------10------|---------------|
|---------------------12-|---------------|
|------------------------|---------------|
|------------------------|---------------|


            G7sus4G7             G7sus4
  Q  Q  E E E E   Q  Q   E     E E  E
|-3--3--3-3-3-3-|-3--3---3-----3-3--3----|
|-3--3--3-3-3-3-|-3--3---3-----3-3--3----|
|-4--4--4-4-5-5-|-4--4---4-----4-5--5----|
|-3--3--3-3-3-3-|-3--3---3-----3-3--3----|
|-5--5--5-5-5-5-|-5--5---5-----5-5--5----|
|-3--3--3-3-3-3-|-3--3---3-----3-3--3----|
|
| W               H      E     Q    E
|---------------|-------------13---13b15-|
|---------------|-------13b15------------|
|---------------|------------------------|
|---------------|------------------------|
|---------------|------------------------|
|---------------|------------------------|


  G7           G7sus4    G7        G7sus4
    Q   Q  E E  E    E   Q  Q  E E E E
|---3---3--3-3--3----3-|-3--3--3-3-3-3-||
|---3---3--3-3--3----3-|-3--3--3-3-3-3-||
|---4---4--4-4--5----5-|-4--4--4-4-5-5-||
|---3---3--3-3--3----3-|-3--3--3-3-3-3-||
|---5---5--5-5--5----5-|-5--5--5-5-5-5-||
|---3---3--3-3--3----3-|-3--3--3-3-3-3-||
|
|  +Q   Q  Q    Q        W
|-(13)-----------------|---------------||
|--------------13b15---|---------------||
|----------------------|---------------||
|----------------------|---------------||
|----------------------|---------------||
|----------------------|---------------||


 Chorus
  G7                           G7sus4G7         G7sus4
   Q        Q            E   E E E    Q  Q  E E E E
|--3--------3------------3---3-3-3-|--3--3--3-3-3-3-|
|--3--------3------------3---3-3-3-|--3--3--3-3-3-3-|
|--4--------4------------4---4-5-5-|--4--4--4-4-5-5-|
|--3--------3------------3---3-3-3-|--3--3--3-3-3-3-|
|--5--------5------------5---5-5-5-|--5--5--5-5-5-5-|
|--3--------3------------3---3-3-3-|--3--3--3-3-3-3-|
|
|  Q       +E    E      +H            Q  Q  H
|-13b15===(13)r--------------------|----------------|
|---------------13b15==(13)r-------|-12-------------|
|----------------------------------|----------------|
|----------------------------------|----------------|
|----------------------------------|----------------|
|----------------------------------|----------------|


  G7        G7sus4G7        G7sus4G7
  Q  Q  E E E E   Q  Q  E E E E
|-3--3--3-3-3-3-|-3--3--3-3-3-3-|
|-3--3--3-3-3-3-|-3--3--3-3-3-3-|
|-4--4--4-4-5-5-|-4--4--4-4-5-5-|
|-3--3--3-3-3-3-|-3--3--3-3-3-3-|
|-5--5--5-5-5-5-|-5--5--5-5-5-5-|
|-3--3--3-3-3-3-|-3--3--3-3-3-3-|
|
| W               W
|---------------|---------------|
|---------------|---------------|
|---------------|---------------|
|---------------|---------------|
|---------------|---------------|
|---------------|---------------|


            G7sus4G7        G7sus4G7        G7sus4
  Q  Q  E E E E   Q  Q  E E E E   Q  Q  E E E E
|-3--3--3-3-3-3-|-3--3--3-3-3-3-|-3--3--3-3-3-3-|
|-3--3--3-3-3-3-|-3--3--3-3-3-3-|-3--3--3-3-3-3-|
|-4--4--4-4-5-5-|-4--4--4-4-5-5-|-4--4--4-4-5-5-|
|-3--3--3-3-3-3-|-3--3--3-3-3-3-|-3--3--3-3-3-3-|
|-5--5--5-5-5-5-|-5--5--5-5-5-5-|-5--5--5-5-5-5-|
|-3--3--3-3-3-3-|-3--3--3-3-3-3-|-3--3--3-3-3-3-|
|
| W               W               W
|---------------|---------------|---------------|
|---------------|---------------|---------------|
|---------------|---------------|---------------|
|---------------|---------------|---------------|
|---------------|---------------|---------------|
|---------------|---------------|---------------|


                                                    D.S.S. al Dbl. Coda
  G7        G7sus4G7        G7sus4G7        G7sus4G7           G7sus4
  Q  Q  E E E E   Q  Q  E E E E   Q  Q  E E E E   Q   Q   E  E E  E
|-3--3--3-3-3-3-|-3--3--3-3-3-3-|-3--3--3-3-3-3-|-3---3---3--3-3--3-----||
|-3--3--3-3-3-3-|-3--3--3-3-3-3-|-3--3--3-3-3-3-|-3---3---3--3-3--3-----||
|-4--4--4-4-5-5-|-4--4--4-4-5-5-|-4--4--4-4-5-5-|-4---4---4--4-5--5-----||
|-3--3--3-3-3-3-|-3--3--3-3-3-3-|-3--3--3-3-3-3-|-3---3---3--3-3--3-----||
|-5--5--5-5-5-5-|-5--5--5-5-5-5-|-5--5--5-5-5-5-|-5---5---5--5-5--5-----||
|-3--3--3-3-3-3-|-3--3--3-3-3-3-|-3--3--3-3-3-3-|-3---3---3--3-3--3-----||
|
| W               W               W               Q   Q   E  Q    E
|---------------|---------------|---------------|-----------------------||
|---------------|---------------|---------------|-----------11---13b15--||
|---------------|---------------|---------------|----10--12-------------||
|---------------|---------------|---------------|-----------------------||
|---------------|---------------|---------------|-----------------------||
|---------------|---------------|---------------|-----------------------||


 Interlude
  &&
  G7        G7sus4G7        G7sus4G7        G7sus4G7             G7sus4
  Q  Q  E E E E   Q  Q  E E E E   Q  Q  E E E E    Q      Q  E E  E    E
|-3--3--3-3-3-3-|-3--3--3-3-3-3-|-3--3--3-3-3-3-|--3------3--3-3--3----3-|
|-3--3--3-3-3-3-|-3--3--3-3-3-3-|-3--3--3-3-3-3-|--3------3--3-3--3----3-|
|-4--4--4-4-5-5-|-4--4--4-4-5-5-|-4--4--4-4-5-5-|--4------4--4-4--5----5-|
|-3--3--3-3-3-3-|-3--3--3-3-3-3-|-3--3--3-3-3-3-|--3------3--3-3--3----3-|
|-5--5--5-5-5-5-|-5--5--5-5-5-5-|-5--5--5-5-5-5-|--5------5--5-5--5----5-|
|-3--3--3-3-3-3-|-3--3--3-3-3-3-|-3--3--3-3-3-3-|--3------3--3-3--3----3-|
|
| W               W               W                Q      Q  Q    Q
|---------------|---------------|---------------|------------------------|
|---------------|---------------|---------------|-10b11----------13b15---|
|---------------|---------------|---------------|--------12--------------|
|---------------|---------------|---------------|------------------------|
|---------------|---------------|---------------|------------------------|
|---------------|---------------|---------------|------------------------|


  G7            G7sus4G7            G7sus4
   Q     Q  E E E E    Q     Q  E E E E
|--3-----3--3-3-3-3-|--3-----3--3-3-3-3-||
|--3-----3--3-3-3-3-|--3-----3--3-3-3-3-||
|--4-----4--4-4-5-5-|--4-----4--4-4-5-5-||
|--3-----3--3-3-3-3-|--3-----3--3-3-3-3-||
|--5-----5--5-5-5-5-|--5-----5--5-5-5-5-||
|--3-----3--3-3-3-3-|--3-----3--3-3-3-3-||
|
|  Q     Q  H          Q     Q  H
|-------------------|-13b15-------------||
|-13b15-------------|-------------------||
|-------------------|-------------------||
|-------------------|-------------------||
|-------------------|-------------------||
|-------------------|-------------------||


 Chorus
  G7            G7sus4G7               G7sus4
  Q   Q     E E E E   Q  Q   E      E  E  E
|-3---3-----3-3-3-3-|-3--3---3------3--3--3-----|
|-3---3-----3-3-3-3-|-3--3---3------3--3--3-----|
|-4---4-----4-4-5-5-|-4--4---4------4--5--5-----|
|-3---3-----3-3-3-3-|-3--3---3------3--3--3-----|
|-5---5-----5-5-5-5-|-5--5---5------5--5--5-----|
|-3---3-----3-3-3-3-|-3--3---3------3--3--3-----|
|
| Q   Q     H         H      E      Q     E
|-------------------|---------------------------|
|----10b11----------|-------10b11==10r---13b15==|
|-------------------|---------------------------|
|-------------------|---------------------------|
|-------------------|---------------------------|
|-------------------|---------------------------|


  G7                  G7sus4     G7                    G7sus4
    Q       Q    E  E  E     E     Q    Q         E  E  E     E
|---3-------3----3--3--3-----3-|---3----3---------3--3--3-----3-|
|---3-------3----3--3--3-----3-|---3----3---------3--3--3-----3-|
|---4-------4----4--4--5-----5-|---4----4---------4--4--5-----5-|
|---3-------3----3--3--3-----3-|---3----3---------3--3--3-----3-|
|---5-------5----5--5--5-----5-|---5----5---------5--5--5-----5-|
|---3-------3----3--3--3-----3-|---3----3---------3--3--3-----3-|
|
|  +E    Q.     +Q     E     E    +Q    E     E  +Q     Q
|-------13-----(13)---------13-|-(13)--------13-(13)---13b15\---|
|-(13)r---------------13b15----|-------13b15--------------------|
|------------------------------|--------------------------------|
|------------------------------|--------------------------------|
|------------------------------|--------------------------------|
|------------------------------|--------------------------------|


  G7        G7sus4     G7            G7sus4
  Q  Q  E E  E     E     Q    Q  E E  E    E
|-3--3--3-3--3-----3-|---3----3--3-3--3----3-|
|-3--3--3-3--3-----3-|---3----3--3-3--3----3-|
|-4--4--4-4--5-----5-|---4----4--4-4--5----5-|
|-3--3--3-3--3-----3-|---3----3--3-3--3----3-|
|-5--5--5-5--5-----5-|---5----5--5-5--5----5-|
|-3--3--3-3--3-----3-|---3----3--3-3--3----3-|
|
| H     Q    E     E    +Q    Q  Q    Q
|--------------------|-----------------------|
|-----------13b15-13-|-(13)--11------13b15---|
|--------------------|-----------------------|
|--------------------|-----------------------|
|--------------------|-----------------------|
|--------------------|-----------------------|


  G7            G7sus4G7            G7sus4G7
  Q   Q     E E E E   Q   Q     E E E E
|-3---3-----3-3-3-3-|-3---3-----3-3-3-3-|
|-3---3-----3-3-3-3-|-3---3-----3-3-3-3-|
|-4---4-----4-4-5-5-|-4---4-----4-4-5-5-|
|-3---3-----3-3-3-3-|-3---3-----3-3-3-3-|
|-5---5-----5-5-5-5-|-5---5-----5-5-5-5-|
|-3---3-----3-3-3-3-|-3---3-----3-3-3-3-|
|
| Q   Q     H         Q   Q     H
|----13b15----------|-------------------|
|-------------------|----13b15----------|
|-------------------|-------------------|
|-------------------|-------------------|
|-------------------|-------------------|
|-------------------|-------------------|


                G7sus4G7            G7sus4
  Q   Q     E E E E   Q   Q     E E E E
|-3---3-----3-3-3-3-|-3---3-----3-3-3-3-|
|-3---3-----3-3-3-3-|-3---3-----3-3-3-3-|
|-4---4-----4-4-5-5-|-4---4-----4-4-5-5-|
|-3---3-----3-3-3-3-|-3---3-----3-3-3-3-|
|-5---5-----5-5-5-5-|-5---5-----5-5-5-5-|
|-3---3-----3-3-3-3-|-3---3-----3-3-3-3-|
|
| Q   Q     H         Q   Q     H
|----13b15----------|-------------------|
|-------------------|----13b15----------|
|-------------------|-------------------|
|-------------------|-------------------|
|-------------------|-------------------|
|-------------------|-------------------|


  G7            G7sus4G7            G7sus4
  Q   Q     E E E E   Q   Q     E E E E
|-3---3-----3-3-3-3-|-3---3-----3-3-3-3-||
|-3---3-----3-3-3-3-|-3---3-----3-3-3-3-||
|-4---4-----4-4-5-5-|-4---4-----4-4-5-5-||
|-3---3-----3-3-3-3-|-3---3-----3-3-3-3-||
|-5---5-----5-5-5-5-|-5---5-----5-5-5-5-||
|-3---3-----3-3-3-3-|-3---3-----3-3-3-3-||
|
| Q   Q     H         Q   Q     H
|----13b15----------|-------------------||
|-------------------|----13b15----------||
|-------------------|-------------------||
|-------------------|-------------------||
|-------------------|-------------------||
|-------------------|-------------------||


 5th Verse
  G7            G7sus4G7            G7sus4
  Q   Q     E E E E   Q   Q     E E E E
|-3---3-----3-3-3-3-|-3---3-----3-3-3-3-|
|-3---3-----3-3-3-3-|-3---3-----3-3-3-3-|
|-4---4-----4-4-5-5-|-4---4-----4-4-5-5-|
|-3---3-----3-3-3-3-|-3---3-----3-3-3-3-|
|-5---5-----5-5-5-5-|-5---5-----5-5-5-5-|
|-3---3-----3-3-3-3-|-3---3-----3-3-3-3-|
|
| Q   Q     H         Q   Q     H
|----13b15----------|-------------------|
|-------------------|----13b15----------|
|-------------------|-------------------|
|-------------------|-------------------|
|-------------------|-------------------|
|-------------------|-------------------|


  G7            G7sus4G7            G7sus4G7
  Q   Q     E E E E   Q   Q     E E E E
|-3---3-----3-3-3-3-|-3---3-----3-3-3-3-|
|-3---3-----3-3-3-3-|-3---3-----3-3-3-3-|
|-4---4-----4-4-5-5-|-4---4-----4-4-5-5-|
|-3---3-----3-3-3-3-|-3---3-----3-3-3-3-|
|-5---5-----5-5-5-5-|-5---5-----5-5-5-5-|
|-3---3-----3-3-3-3-|-3---3-----3-3-3-3-|
|
| Q   Q     H         Q   Q     H
|----13b15----------|-------------------|
|-------------------|----13b15----------|
|-------------------|-------------------|
|-------------------|-------------------|
|-------------------|-------------------|
|-------------------|-------------------|


                G7sus4G7            G7sus4
  Q   Q     E E E E   Q   Q     E E E E
|-3---3-----3-3-3-3-|-3---3-----3-3-3-3-|
|-3---3-----3-3-3-3-|-3---3-----3-3-3-3-|
|-4---4-----4-4-5-5-|-4---4-----4-4-5-5-|
|-3---3-----3-3-3-3-|-3---3-----3-3-3-3-|
|-5---5-----5-5-5-5-|-5---5-----5-5-5-5-|
|-3---3-----3-3-3-3-|-3---3-----3-3-3-3-|
|
| Q   Q     H         Q   Q     H
|----13b15----------|-------------------|
|-------------------|----13b15----------|
|-------------------|-------------------|
|-------------------|-------------------|
|-------------------|-------------------|
|-------------------|-------------------|


  G7            G7sus4G7            G7sus4
  Q   Q     E E E E   Q   Q     E E E E
|-3---3-----3-3-3-3-|-3---3-----3-3-3-3-||
|-3---3-----3-3-3-3-|-3---3-----3-3-3-3-||
|-4---4-----4-4-5-5-|-4---4-----4-4-5-5-||
|-3---3-----3-3-3-3-|-3---3-----3-3-3-3-||
|-5---5-----5-5-5-5-|-5---5-----5-5-5-5-||
|-3---3-----3-3-3-3-|-3---3-----3-3-3-3-||
|
| Q   Q     H         Q   Q     H
|----13b15----------|-------------------||
|-------------------|----13b15----------||
|-------------------|-------------------||
|-------------------|-------------------||
|-------------------|-------------------||
|-------------------|-------------------||


 Pre-Chorus
  Em
  Q  Q   E    E E E    Q      Q      E  E E E
|-0--0---0----0-0-0-|--0------0------0--0-0-0-|
|-0--0---0----0-0-0-|--0------0------0--0-0-0-|
|-0--0---0----0-0-0-|--0------0------0--0-0-0-|
|-2--2---2----2-2-2-|--2------2------2--2-2-2-|
|-2--2---2----2-2-2-|--2------2------2--2-2-2-|
|-0--0---0----0-0-0-|--0------0------0--0-0-0-|
|
| H      H             Q      E  E  +H
|-------------------|-------------------------|
|-------15b17-------|-------------------------|
|-------------------|-14b16--14-12-(12)-------|
|-------------------|-------------------------|
|-------------------|-------------------------|
|-------------------|-------------------------|


                                  Out-Chorus
  D                                G7        G7sus4G7        G7sus4
  Q  Q  E E E E   Q  Q  E E E E    Q  Q  E E E E   Q  Q  E E E E
|-2--2--2-2-2-2-|-2--2--2-2-2-2-||-3--3--3-3-3-3-|-3--3--3-3-3-3-|
|-3--3--3-3-3-3-|-3--3--3-3-3-3-||-3--3--3-3-3-3-|-3--3--3-3-3-3-|
|-2--2--2-2-2-2-|-2--2--2-2-2-2-||-4--4--4-4-5-5-|-4--4--4-4-5-5-|
|-0--0--0-0-0-0-|-0--0--0-0-0-0-||-3--3--3-3-3-3-|-3--3--3-3-3-3-|
|---------------|---------------||-5--5--5-5-5-5-|-5--5--5-5-5-5-|
|---------------|---------------||-3--3--3-3-3-3-|-3--3--3-3-3-3-|


    G7        G7sus4G7        G7sus4G7        G7sus4
    Q  Q  E E E E   Q  Q  E E E E   Q  Q  E E E E
||--3--3--3-3-3-3-|-3--3--3-3-3-3-|-3--3--3-3-3-3--||
||o-3--3--3-3-3-3-|-3--3--3-3-3-3-|-3--3--3-3-3-3-o||
||--4--4--4-4-5-5-|-4--4--4-4-5-5-|-4--4--4-4-5-5--||
||--3--3--3-3-3-3-|-3--3--3-3-3-3-|-3--3--3-3-3-3--||
||o-5--5--5-5-5-5-|-5--5--5-5-5-5-|-5--5--5-5-5-5-o||
||--3--3--3-3-3-3-|-3--3--3-3-3-3-|-3--3--3-3-3-3--||


Duration Legend
---------------
W - whole; H - half; Q - quarter; E - 8th; S - 16th; T - 32nd; X - 64th; a - acciaccatura
+ - note tied to previous; . - note dotted; .. - note double dotted
Uncapitalized letters represent notes that are staccato (1/2 duration)
Irregular groupings are notated above the duration line
Duration letters will always appear directly above the note/fret number it represents the
duration for.  Duration letters with no fret number below them represent rests.  Multi-
bar rests are notated in the form Wxn, where n is the number of bars to rest for.  Low
melody durations appear below the staff

Tablature Legend
----------------
 h   - hammer-on
 p   - pull-off
 b   - bend
 pb  - pre-bend
 r   - bend release (if no number after the r, then release immediately)
 /\  - slide into or out of (from/to "nowhere")
 s   - legato slide
 S   - shift slide
  - natural harmonic
[n]  - artificial harmonic
n(n) - tapped harmonic
 ~   - vibrato
 tr  - trill
 T   - tap
 TP  - trem. picking
 PM  - palm muting
\n/  - tremolo bar dip; n = amount to dip
 \n  - tremolo bar down
 n/  - tremolo bar up
/n\  - tremolo bar inverted dip
 =   - hold bend; also acts as connecting device for hammers/pulls
 <>  - volume swell (louder/softer)
 x   - on rhythm slash represents muted slash
 o   - on rhythm slash represents single note slash

Misc Legend
-----------
 |  - bar
||  - double bar
||o - repeat start
o|| - repeat end
*|  - double bar (ending)
 :  - bar (freetime)
 $  - Segno
 &  - Coda
Tempo markers -  = BPM(8/16=s8/s16), where s8 = swing 8ths, s16 = swing 16ths




I ain't gonna work on Maggie's farm no more
No, I aint gonna work on Maggie's farm no more
Well, I wake up in the morning
Fold my hands and pray for rain
I got a head full of ideas
That are drivin' me insane
It's a shame the way she makes me scrub the floor
I ain't gonna work on Maggie's farm no more.

I ain't gonna work for Maggie's brother no more
No, I aint gonna work for Maggie's brother no more
Well, he hands you a nickel
He hands you a dime
He asks you with a grin
If you're havin' a good time
Then he fines you every time you slam the door
I ain't gonna work for Maggie's brother more.

I ain't gonna work for Maggie's pa no more
No, I aint gonna work for Maggie's pa no more
Well, he puts his cigar
Out in your face just for kicks
His bedroom window
It is made out of bricks
The National Guard stands around his door
Ah, I ain't gonna work for Maggie's pa no more.

I ain't gonna work for Maggie's ma no more
No, I ain't gonna work for Maggie's ma no more
Well, when she talks to all the servants
About man and God and law
Everybody says
She's the brains behind pa
She's sixty-eight, but she says she's twenty-four
I ain't gonna work for Maggie's ma no more.

I ain't gonna work on Maggie's farm no more
I aint gonna work on Maggie's farm no more
Well, I try my best
To be just like I am
But everybody wants you
To be just like them
They say sing while you slave and I just get bored
I ain't gonna work on Maggie's farm no more.
Suggest correction
Creating personal tab
Creating personal tab
You can edit any tab online and save it as your Personal.

You can edit, replace or remove any tab part or add personal notes – all changes will be seen only by you.

Personal tabs can be accessed anytime from any device, even offline.
Learn more »
Give kudos to tab author, rate the tab!
1 2 3 4 5
comments
print report bad tab
guest
You may want to rate the tab now too:
select rating
Wanna post a correction for this tab? Suggest correction