Oops, an error
Loading. Please wait.

Mighty Quinn tab

version 1
version 1

Whole song

Interactive

415 views 18 this week
no commentswrite comment
1 2 3 4 5
3 more votes to show rating
add to favorites
×
Save as Personal and add changes to this tab that will be seen only by you. Learn more ›
×
You can save this tab as Personal to edit and correct it or add notes. All changes will be seen only by you. Learn more »
launch autoscroll
font size
0
reset
how to read this tab
guitar tuner
edit
Autoscroll
slow
fast
+/-
esc
set tempo
stop
Author
Difficulty
THE MIGHTY QUINN (QUINN THE ESKIMO)

As recorded by Bob Dylan
(From the 1970 Album SELF PORTRAIT)

Words and Music by Bob Dylan

Transcribed by Slowhand


Gtr I (E A D G B E) - 'Bob Dylan - Acoustic Guitar'
Gtr II (E A D G B E) - 'Robbie Robertson - Electric Guitar'


 Intro
  Q=90
  A       D         A       D           A       D
 4/4
  Gtr I (Ac. Gtr.)
  E E E E E E E E   E E E E E E E S S   E E E E E E E E
|-0-0-0-0-2-2-2-2-|-0-0-0-0-2-2-2-2-2-|-0-0-0-0-2-2-2-2-||
|-2-2-2-2-3-3-3-3-|-2-2-2-2-3-3-3-3-3-|-2-2-2-2-3-3-3-3-||
|-2-2-2-2-2-2-2-2-|-2-2-2-2-2-2-2-2-2-|-2-2-2-2-2-2-2-2-||
|-2-2-2-2-0-0-0-0-|-2-2-2-2-0-0-0-0-0-|-2-2-2-2-0-0-0-0-||
|-0-0-0-0---------|-0-0-0-0-----------|-0-0-0-0---------||
|-----------------|-------------------|-----------------||
|
| Gtr II (Clean El. Gtr.)
| W                 e e q   Q   E E     e e q   Q   E E
|-----------------|-----0-------------|-----0-----------||
|-----------------|-----2-------3-1---|-----2-------3-1-||
|-----------------|-2-2-2-------2-2---|-2-2-2-------2-2-||
|-----------------|-----2-------------|-----2-----------||
|-----------------|-----0-------------|-----0-----------||
|-----------------|-------------------|-----------------||


 1st Verse
  A       D         A       D         A       D
  E E E E E E E E   E E E E E E E E   E E E E E E E E
|-0-0-0-0-2-2-2-2-|-0-0-0-0-2-2-2-2-|-0-0-0-0-2-2-2-2-|
|-2-2-2-2-3-3-3-3-|-2-2-2-2-3-3-3-3-|-2-2-2-2-3-3-3-3-|
|-2-2-2-2-2-2-2-2-|-2-2-2-2-2-2-2-2-|-2-2-2-2-2-2-2-2-|
|-2-2-2-2-0-0-0-0-|-2-2-2-2-0-0-0-0-|-2-2-2-2-0-0-0-0-|
|-0-0-0-0---------|-0-0-0-0---------|-0-0-0-0---------|
|-----------------|-----------------|-----------------|
|
| e e q   e e q     e e q   e e q     e e q   e e q
|-----0-------2---|-----0-------2---|-----0-------2---|
|-----2-------3---|-----2-------3---|-----2-------3---|
|-2-2-2---2-2-2---|-2-2-2---2-2-2---|-2-2-2---2-2-2---|
|-----2-------0---|-----2-------0---|-----2-------0---|
|-----0-----------|-----0-----------|-----0-----------|
|-----------------|-----------------|-----------------|


  E E E E E E E E   E E E E E E E E   E E E E E E E E
|-0-0-0-0-2-2-2-2-|-0-0-0-0-2-2-2-2-|-0-0-0-0-2-2-2-2-|
|-2-2-2-2-3-3-3-3-|-2-2-2-2-3-3-3-3-|-2-2-2-2-3-3-3-3-|
|-2-2-2-2-2-2-2-2-|-2-2-2-2-2-2-2-2-|-2-2-2-2-2-2-2-2-|
|-2-2-2-2-0-0-0-0-|-2-2-2-2-0-0-0-0-|-2-2-2-2-0-0-0-0-|
|-0-0-0-0---------|-0-0-0-0---------|-0-0-0-0---------|
|-----------------|-----------------|-----------------|
|
| e e q   e e q     e e q   e e q     e e q   e e q
|-----0-------2---|-----0-------2---|-----0-------2---|
|-----2-------3---|-----2-------3---|-----2-------3---|
|-2-2-2---2-2-2---|-2-2-2---2-2-2---|-2-2-2---2-2-2---|
|-----2-------0---|-----2-------0---|-----2-------0---|
|-----0-----------|-----0-----------|-----0-----------|
|-----------------|-----------------|-----------------|


                              Chorus
  A     E       D     A        A
  Q  Q  Q  Q    Q  Q  Q  Q     E E E E E E E E
|-0-----0-----|-2-----0-----||-0-0-0-0-0-0-0-0-|
|-2-----0-----|-3-----2-----||-2-2-2-2-2-2-2-2-|
|-2-----1-----|-2-----2-----||-2-2-2-2-2-2-2-2-|
|-2-----2-----|-0-----2-----||-2-2-2-2-2-2-2-2-|
|-0-----2-----|-------0-----||-0-0-0-0-0-0-0-0-|
|-------0-----|-------------||-----------------|
|
| Q  Q  Q  Q    Q  Q  Q  Q     e e q   e e q
|-0-----0-----|-2-----0-----||-----0-------0---|
|-2-----0-----|-3-----2-----||-----2-------2---|
|-2-----1-----|-2-----2-----||-2-2-2---2-2-2---|
|-2-----2-----|-0-----2-----||-----2-------2---|
|-0-----2-----|-------0-----||-----0-------0---|
|-------0-----|-------------||-----------------|


  E       A                 E         D    A
  E E E E E E E E   E E E E E E E E   E Q  E +E    E   E   E
|-0-0-0-0-0-0-0-0-|-0-0-0-0-0-0-0-0-|-2-2--0-(0)---0---0---0-|
|-0-0-0-0-2-2-2-2-|-2-2-2-2-0-0-0-0-|-3-3--2-(2)---2---2---2-|
|-1-1-1-1-2-2-2-2-|-2-2-2-2-1-1-1-1-|-2-2--2-(2)---2---2---2-|
|-2-2-2-2-2-2-2-2-|-2-2-2-2-2-2-2-2-|-0-0--2-(2)---2---2---2-|
|-2-2-2-2-0-0-0-0-|-0-0-0-0-2-2-2-2-|------0-(0)---0---0---0-|
|-0-0-0-0---------|---------0-0-0-0-|------------------------|
|
| Q   q   Q   q     e e q   e e q     E Q  E +S  s s s s s e
|-----0-------0---|-----0-------0---|-2-2--0-(0)-------------|
|-----0-------2---|-----2-------0---|-3-3--2-(2)-------------|
|-----1-------2---|-2-2-2---1-1-1---|-2-2--2-(2)-2-2-2-2-2-2-|
|-----2-------2---|-----2-------2---|-0-0--2-(2)-------------|
|-----2-------0---|-----0-------2---|------0-(0)-------------|
|-----0-----------|-------------0---|------------------------|


                          E       A                      E
  E E E E E E    E    E   E E E E E    E   E E   E E E E E E E E
|-0-0-0-0-0-0----0----0-|-0-0-0-0-0----0---0-0-|-0-0-0-0-0-0-0-0--|
|-2-2-2-2-2-2----2----2-|-0-0-0-0-2----2---2-2-|-2-2-2-2-0-0-0-0--|
|-2-2-2-2-2-2----2----2-|-1-1-1-1-2----2---2-2-|-2-2-2-2-1-1-1-1--|
|-2-2-2-2-2-2----2----2-|-2-2-2-2-2----2---2-2-|-2-2-2-2-2-2-2-2--|
|-0-0-0-0-0-0----0----0-|-2-2-2-2-0----0---0-0-|-0-0-0-0-2-2-2-2--|
|-----------------------|-0-0-0-0--------------|---------0-0-0-0--|
|
| e e Q   e s S +S  S E   Q   q   S  S S S Q     e e q   e e q
|-----0-------0-(0)-0-0-|-----0----------5-----|-----0-------0----|
|-----2-------2-(2)-2-2-|-----0----------5-----|-----2-------0----|
|-2-2-2---2-2-2-(2)-2-2-|-----1-----/5-6-------|-2-2-2---1-1-1----|
|-----2-------2-(2)-2-2-|-----2----------------|-----2-------2----|
|-----0-------0-(0)-0-0-|-----2----------------|-----0-------2----|
|-----------------------|-----0----------------|-------------0----|


                           2nd Verse
  D    A                    A       D         A       D
  E Q  E +E    E   E   E    E E E E E E E E   E E E E E E E E
|-2-2--0-(0)---0---0---0-||-0-0-0-0-2-2-2-2-|-0-0-0-0-2-2-2-2-|
|-3-3--2-(2)---2---2---2-||-2-2-2-2-3-3-3-3-|-2-2-2-2-3-3-3-3-|
|-2-2--2-(2)---2---2---2-||-2-2-2-2-2-2-2-2-|-2-2-2-2-2-2-2-2-|
|-0-0--2-(2)---2---2---2-||-2-2-2-2-0-0-0-0-|-2-2-2-2-0-0-0-0-|
|------0-(0)---0---0---0-||-0-0-0-0---------|-0-0-0-0---------|
|------------------------||-----------------|-----------------|
|
| E Q  E +S  s s s s s e    e e q   e e q     e e q   e e q
|-2-2--0-(0)-------------||-----0-------2---|-----0-------2---|
|-3-3--2-(2)-------------||-----2-------3---|-----2-------3---|
|-2-2--2-(2)-2-2-2-2-2-2-||-2-2-2---2-2-2---|-2-2-2---2-2-2---|
|-0-0--2-(2)-------------||-----2-------0---|-----2-------0---|
|------0-(0)-------------||-----0-----------|-----0-----------|
|------------------------||-----------------|-----------------|


  A       D         A          D
  E E E E E E E E   E E E  E   E   E   E     E
|-0-0-0-0-2-2-2-2-|-0-0-0--0---2---2---2-----2-|
|-2-2-2-2-3-3-3-3-|-2-2-2--2---3---3---3-----3-|
|-2-2-2-2-2-2-2-2-|-2-2-2--2---2---2---2-----2-|
|-2-2-2-2-0-0-0-0-|-2-2-2--2---0---0---0-----0-|
|-0-0-0-0---------|-0-0-0--0-------------------|
|-----------------|----------------------------|
|
|                                      |-3-|
| e e q   e e q     e e e.   S S E   S S S S E
|-----0-------2---|-----0--------0---0---------|
|-----2-------3---|-----2----0-2-------2-0---0-|
|-2-2-2---2-2-2---|-2-2-2------------------2---|
|-----2-------0---|-----2----------------------|
|-----0-----------|-----0----------------------|
|-----------------|----------------------------|


  A       D         A       D
  E E E E E E E E   E E E E E E E E
|-0-0-0-0-2-2-2-2-|-0-0-0-0-2-2-2-2-|
|-2-2-2-2-3-3-3-3-|-2-2-2-2-3-3-3-3-|
|-2-2-2-2-2-2-2-2-|-2-2-2-2-2-2-2-2-|
|-2-2-2-2-0-0-0-0-|-2-2-2-2-0-0-0-0-|
|-0-0-0-0---------|-0-0-0-0---------|
|-----------------|-----------------|
|
| e e q   e e q     e e q   e e q
|-----0-------2---|-----0-------2---|
|-----2-------3---|-----2-------3---|
|-2-2-2---2-2-2---|-2-2-2---2-2-2---|
|-----2-------0---|-----2-------0---|
|-----0-----------|-----0-----------|
|-----------------|-----------------|


  A     E       D     A
  Q  Q  Q  Q    Q  Q  Q  Q
|-0-----0-----|-2-----0-----||
|-2-----0-----|-3-----2-----||
|-2-----1-----|-2-----2-----||
|-2-----2-----|-0-----2-----||
|-0-----2-----|-------0-----||
|-------0-----|-------------||
|
| Q  Q  Q  Q    Q  Q  Q  Q
|-0-----0-----|-2-----0-----||
|-2-----0-----|-3-----2-----||
|-2-----1-----|-2-----2-----||
|-2-----2-----|-0-----2-----||
|-0-----2-----|-------0-----||
|-------0-----|-------------||


 Chorus
  A                        E          A
  E E E  E   E   E   E E   E E E  E   E   E   E E
|-0-0-0--0---0---0---0-0-|-0-0-0--0---0---0---0-0---|
|-2-2-2--2---2---2---2-2-|-0-0-0--0---2---2---2-2---|
|-2-2-2--2---2---2---2-2-|-1-1-1--1---2---2---2-2---|
|-2-2-2--2---2---2---2-2-|-2-2-2--2---2---2---2-2---|
|-0-0-0--0---0---0---0-0-|-2-2-2--2---0---0---0-0---|
|------------------------|-0-0-0--0-----------------|
|
| q   e.   S S S S s Q     Q   E.   S S S S s Q
|-----0------------0-----|-----0------------0-------|
|-----2----1-2-1-2-2-----|-----0----1-2-1-2-2-------|
|-2---2------------2-----|-----1------------2-------|
|-----2------------2-----|-----2------------2-------|
|-----0------------0-----|-----2------------0-------|
|------------------------|-----0--------------------|


          E         D    A
  E E E E E E E E   E Q  E +E    E   E   E     E E E  E   E   E   E E
|-0-0-0-0-0-0-0-0-|-2-2--0-(0)---0---0---0---|-0-0-0--0---0---0---0-0--|
|-2-2-2-2-0-0-0-0-|-3-3--2-(2)---2---2---2---|-2-2-2--2---2---2---2-2--|
|-2-2-2-2-1-1-1-1-|-2-2--2-(2)---2---2---2---|-2-2-2--2---2---2---2-2--|
|-2-2-2-2-2-2-2-2-|-0-0--2-(2)---2---2---2---|-2-2-2--2---2---2---2-2--|
|-0-0-0-0-2-2-2-2-|------0-(0)---0---0---0---|-0-0-0--0---0---0---0-0--|
|---------0-0-0-0-|--------------------------|-------------------------|
|
| e e q   e e q     E Q  E +S  S S S S S S S   q   E.   S S E   S q
|-----0-------0---|-2-2--0-(0)---------------|-----0-------------------|
|-----2-------0---|-3-3--2-(2)-------0---0---|-----2------0-----0------|
|-2-2-2---1-1-1---|-2-2--2-(2)-2-2-2---2---2-|-2---2----2---2-----2----|
|-----2-------2---|-0-0--2-(2)---------------|-----2-------------------|
|-----0-------2---|------0-(0)---------------|-----0-------------------|
|-------------0---|--------------------------|-------------------------|


  E       A                         E
  E E E E E    E   E   E    E E E E E E E E   E Q  E +E    E   E   E
|-0-0-0-0-0----0---0---0--|-0-0-0-0-0-0-0-0-|-2-2--0-(0)---0---0---0----||
|-0-0-0-0-2----2---2---2--|-2-2-2-2-0-0-0-0-|-3-3--2-(2)---2---2---2----||
|-1-1-1-1-2----2---2---2--|-2-2-2-2-1-1-1-1-|-2-2--2-(2)---2---2---2----||
|-2-2-2-2-2----2---2---2--|-2-2-2-2-2-2-2-2-|-0-0--2-(2)---2---2---2----||
|-2-2-2-2-0----0---0---0--|-0-0-0-0-2-2-2-2-|------0-(0)---0---0---0----||
|-0-0-0-0-----------------|---------0-0-0-0-|---------------------------||
|
| Q   q   S  S S S S S E    e e q   e e q     E Q  E  S  S S S S S S S
|-----0----------5--------|-----0-------0---|-2-2--0--------------------||
|-----0----------5---5----|-----2-------0---|-3-3--2---------0----------||
|-----1-----/5-6-6-----6\-|-2-2-2---1-1-1---|-2-2--2-------1---1--------||
|-----2-------------------|-----2-------2---|-0-0--2--2--4-------2-4-2--||
|-----2-------------------|-----0-------2---|------0--------------------||
|-----0-------------------|-------------0---|---------------------------||


 Guitar Solo
  A           D             A           D         A               D
  E E E   E   E     E E E   E E   E   E E E E E   E   E   E   E   E E E E
|-0-0-0---0---2-----2-2-2-|-0-0---0---0-2-2-2-2-|-0---0---0---0---2-2-2-2-|
|-2-2-2---2---3-----3-3-3-|-2-2---2---2-3-3-3-3-|-2---2---2---2---3-3-3-3-|
|-2-2-2---2---2-----2-2-2-|-2-2---2---2-2-2-2-2-|-2---2---2---2---2-2-2-2-|
|-2-2-2---2---0-----0-0-0-|-2-2---2---2-0-0-0-0-|-2---2---2---2---0-0-0-0-|
|-0-0-0---0---------------|-0-0---0---0---------|-0---0---0---0-----------|
|-------------------------|---------------------|-------------------------|
|
| E E S E   S S T T E E E   E S S S S E E E q     S S S S S S S S e Q   E
|-------------------------|---0---2-0-----------|-2-0---2-0---2-0-0-5-----|
|---2-3-2---0h2-0-------0-|-2---2-----2---2-----|-----2-----2-------------|
|-2---------------2---2---|-----------------2---|-------------------------|
|-------------------4-----|---------------------|-------------------------|
|-------------------------|---------------------|-------------------------|
|-------------------------|---------------------|-------------------------|


  A           D           A         D
  E E E   E   E   E E E   E E E E    E    E   E E
|-0-0-0---0---2---2-2-2-|-0-0-0-0----2----2---2-2-|
|-2-2-2---2---3---3-3-3-|-2-2-2-2----3----3---3-3-|
|-2-2-2---2---2---2-2-2-|-2-2-2-2----2----2---2-2-|
|-2-2-2---2---0---0-0-0-|-2-2-2-2----0----0---0-0-|
|-0-0-0---0-------------|-0-0-0-0-----------------|
|-----------------------|-------------------------|
|
| E E S E   S S S E e E   e E E S S +S  S S S E E
|-5-5-5-5---5p3-2-3-----|-------------------------|
|-------------------1---|-3-3-2-1-2-(2)---0-----2-|
|---------------------2-|---------------2---2-2---|
|-----------------------|-------------------------|
|-----------------------|-------------------------|
|-----------------------|-------------------------|


  A             D
  E E E   E     E E     E E
|-0-0-0---0-----2-2-----2-2---|
|-2-2-2---2-----3-3-----3-3---|
|-2-2-2---2-----2-2-----2-2---|
|-2-2-2---2-----0-0-----0-0---|
|-0-0-0---0-------------------|
|-----------------------------|
|
| E E S S S S a E S S a E S S
|-----------------------------|
|-----------------------------|
|-2-2-2-2-2-2-1s2-2-2-1s2-2-2-|
|-----------------------------|
|-----------------------------|
|-----------------------------|


  A               E
  Q       Q       Q       Q
|-0---------------0---------------|
|-2---------------0---------------|
|-2---------------1---------------|
|-2---------------2---------------|
|-0---------------2---------------|
|-----------------0---------------|
|
| S S S S S S S S S S S S S S S S
|---------------------------------|
|-----------0---------------------|
|-2-2-2-2-2---2---2-2-2-2-0-0-----|
|---------------4-------------2-2-|
|---------------------------------|
|---------------------------------|


                                3rd Verse
  D           A                  A       D
  Q     Q     Q       Q          E E E E E E E E
|-2-----------0---------------||-0-0-0-0-2-2-2-2-|
|-3-----------2---------------||-2-2-2-2-3-3-3-3-|
|-2-----------2---------------||-2-2-2-2-2-2-2-2-|
|-0-----------2---------------||-2-2-2-2-0-0-0-0-|
|-------------0---------------||-0-0-0-0---------|
|-----------------------------||-----------------|
|
| E S S E S S S S S S S S S S    e e q   Q   E E
|-----------------------------||-----0-----------|
|-----------------------------||-----2-------2-1-|
|-----------------------------||-2-2-2-------2-2-|
|-2-2-2-2-2-2-0---------------||-----2-----------|
|---------------3-3-3-0-------||-----0-----------|
|-----------------------3-0-0-||-----------------|


  A       D             A       D         A       D
  E E E E E   E   E E   E E E E E E E E   E E E E E E   E   E
|-0-0-0-0-2---2---2-2-|-0-0-0-0-2-2-2-2-|-0-0-0-0-2-2---2---2--|
|-2-2-2-2-3---3---3-3-|-2-2-2-2-3-3-3-3-|-2-2-2-2-3-3---3---3--|
|-2-2-2-2-2---2---2-2-|-2-2-2-2-2-2-2-2-|-2-2-2-2-2-2---2---2--|
|-2-2-2-2-0---0---0-0-|-2-2-2-2-0-0-0-0-|-2-2-2-2-0-0---0---0--|
|-0-0-0-0-------------|-0-0-0-0---------|-0-0-0-0--------------|
|---------------------|-----------------|----------------------|
|
| e e q   s e   s q     e e q   Q   q     e e q   E S S S S E
|-----0-----2-----2---|-----0-------2---|-----0-----2-2-2-2-2--|
|-----2-----3-----3---|-----2-------3---|-----2-----3-3-3-3-3--|
|-2-2-2-----2-----2---|-2-2-2-------2---|-2-2-2-----2-2-2-2-2--|
|-----2-----0-----0---|-----2-------0---|-----2-----0-0-0-0-0--|
|-----0---------------|-----0-----------|-----0----------------|
|---------------------|-----------------|----------------------|


  A       D         A       D             A      E        D      A
  E E E E E E E E   E E E E E   E   E E    Q  Q   Q  Q     Q  Q   Q  Q
|-0-0-0-0-2-2-2-2-|-0-0-0-0-2---2---2-2-|--0------0-----|--2------0------||
|-2-2-2-2-3-3-3-3-|-2-2-2-2-3---3---3-3-|--2------0-----|--3------2------||
|-2-2-2-2-2-2-2-2-|-2-2-2-2-2---2---2-2-|--2------1-----|--2------2------||
|-2-2-2-2-0-0-0-0-|-2-2-2-2-0---0---0-0-|--2------2-----|--0------2------||
|-0-0-0-0---------|-0-0-0-0-------------|--0------2-----|---------0------||
|-----------------|---------------------|---------0-----|----------------||
|
| q   q   Q   Q     e e Q   S E   S Q      Q  Q   Q  Q     Q  Q   Q  Q
|-----0-------2---|-----0---------------|-^0-----^0-----|-^2-----^0------||
|-----2-------3---|-----2-----3-----3---|-^2-----^0-----|-^3-----^2------||
|-2---2-------2---|-2-2-2---------------|-^2-----^1-----|-^2-----^2------||
|-----2-------0---|-----2---------------|-^2-----^2-----|-^0-----^2------||
|-----0-----------|-----0---------------|-^0-----^2-----|--------^0------||
|-----------------|---------------------|--------^0-----|----------------||


 Chorus
  A                 E       A
  E E E E E E E E   E E E E E    E   E E
|-0-0-0-0-0-0-0-0-|-0-0-0-0-0----0---0-0-|
|-2-2-2-2-2-2-2-2-|-0-0-0-0-2----2---2-2-|
|-2-2-2-2-2-2-2-2-|-1-1-1-1-2----2---2-2-|
|-2-2-2-2-2-2-2-2-|-2-2-2-2-2----2---2-2-|
|-0-0-0-0-0-0-0-0-|-2-2-2-2-0----0---0-0-|
|-----------------|-0-0-0-0--------------|
|
| e e q   e e q     Q   q   S  S S S e e
|-----0-------0---|-----0----------5-----|
|-----2-------2---|-----0------------5---|
|-2-2-2---2-2-2---|-----1-----/5h6-----6-|
|-----2-------2---|-----2----------------|
|-----0-------0---|-----2----------------|
|-----------------|-----0----------------|


  A       E            D    A
  E E E E E    E E E   E Q  E +E    E   E   E
|-0-0-0-0-0----0-0-0-|-2-2--0-(0)---0---0---0---|
|-2-2-2-2-0----0-0-0-|-3-3--2-(2)---2---2---2---|
|-2-2-2-2-1----1-1-1-|-2-2--2-(2)---2---2---2---|
|-2-2-2-2-2----2-2-2-|-0-0--2-(2)---2---2---2---|
|-0-0-0-0-2----2-2-2-|------0-(0)---0---0---0---|
|---------0----0-0-0-|--------------------------|
|
| Q   q   S E.   Q     E Q  E +S  s s s s s E
|-----0-----0----0---|-2-2--0-(0)---------------|
|-----2-----0----0---|-3-3--2-(2)---------------|
|-----2-----1----1---|-2-2--2-(2)-2-2-2-2-2-2---|
|-----2-----2----2---|-0-0--2-(2)---------------|
|-----0-----2----2---|------0-(0)---------------|
|-----------0----0---|--------------------------|


                                E       A                             E
  E E E  E    E   E   E   E     E E E E E    E    E    E      E E E E E E E E
|-0-0-0--0----0---0---0---0---|-0-0-0-0-0----0----0----0----|-0-0-0-0-0-0-0-0--|
|-2-2-2--2----2---2---2---2---|-0-0-0-0-2----2----2----2----|-2-2-2-2-0-0-0-0--|
|-2-2-2--2----2---2---2---2---|-1-1-1-1-2----2----2----2----|-2-2-2-2-1-1-1-1--|
|-2-2-2--2----2---2---2---2---|-2-2-2-2-2----2----2----2----|-2-2-2-2-2-2-2-2--|
|-0-0-0--0----0---0---0---0---|-2-2-2-2-0----0----0----0----|-0-0-0-0-2-2-2-2--|
|-----------------------------|-0-0-0-0---------------------|---------0-0-0-0--|
|
| e e E.    S S S S S S S S S   Q   q   S  S S S +S  S S S    q   q   q   Q
|-----0-------------5---------|-----0----------5-(5)--------|-----0-------0----|
|-----2-----------------7-5---|-----0-----------------------|-----2-------0----|
|-2-2-2----/5-6-5-6---------6-|-----1-----/5-6-------5-6-5\-|-2---2---1---1----|
|-----2-----------------------|-----2-----------------------|-----2-------2----|
|-----0-----------------------|-----2-----------------------|-----0-------2----|
|-----------------------------|-----0-----------------------|-------------0----|


  D    A                    E           D    A
  E Q  E +E  E E E   E E Q  E Q     E   E Q  E +H       +W
|-2-2--0-(0)-0-0-0-|-0-0-0--0-0-----0-|-2-2--0-(0)----|-(0)----*|
|-3-3--2-(2)-2-2-2-|-2-2-2--0-0-----0-|-3-3--2-(2)----|-(2)----*|
|-2-2--2-(2)-2-2-2-|-2-2-2--1-1-----1-|-2-2--2-(2)----|-(2)----*|
|-0-0--2-(2)-2-2-2-|-2-2-2--2-2-----2-|-0-0--2-(2)----|-(2)----*|
|------0-(0)-0-0-0-|-0-0-0--2-2-----2-|------0-(0)----|-(0)----*|
|------------------|--------0-0-----0-|---------------|--------*|
|
| E Q  E +Q.     E   Q   Q  E E +Q      E Q  E  H       +W
|-2-2--0-(0)-------|-----5----4-(4)---|-2-2--0-(0)----|-(0)----*|
|-3-3--2-(2)-------|-----5------------|-3-3--1s=2-----|-(2)----*|
|-2-2--2-(2)-------|-6---6--4---------|---------------|--------*|
|-0-0--2-(2)-------|------------------|---------------|--------*|
|------0-(0)-------|------------------|---------------|--------*|
|------------------|------------------|---------------|--------*|
                     H      H


Duration Legend
---------------
W - whole; H - half; Q - quarter; E - 8th; S - 16th; T - 32nd; X - 64th; a - acciaccatura
+ - note tied to previous; . - note dotted; .. - note double dotted
Uncapitalized letters represent notes that are staccato (1/2 duration)
Irregular groupings are notated above the duration line
Duration letters will always appear directly above the note/fret number it represents the
duration for.  Duration letters with no fret number below them represent rests.  Multi-
bar rests are notated in the form Wxn, where n is the number of bars to rest for.  Low
melody durations appear below the staff

Tablature Legend
----------------
 h   - hammer-on
 p   - pull-off
 b   - bend
 pb  - pre-bend
 r   - bend release (if no number after the r, then release immediately)
 /\  - slide into or out of (from/to "nowhere")
 s   - legato slide
 S   - shift slide
  - natural harmonic
[n]  - artificial harmonic
n(n) - tapped harmonic
 ~   - vibrato
 tr  - trill
 T   - tap
 TP  - trem. picking
 PM  - palm muting
\n/  - tremolo bar dip; n = amount to dip
 \n  - tremolo bar down
 n/  - tremolo bar up
/n\  - tremolo bar inverted dip
 =   - hold bend; also acts as connecting device for hammers/pulls
 <>  - volume swell (louder/softer)
 x   - on rhythm slash represents muted slash
 o   - on rhythm slash represents single note slash

Misc Legend
-----------
 |  - bar
||  - double bar
||o - repeat start
o|| - repeat end
*|  - double bar (ending)
 :  - bar (freetime)
 $  - Segno
 &  - Coda
Tempo markers -  = BPM(8/16=s8/s16), where s8 = swing 8ths, s16 = swing 16ths
Suggest correction
Creating personal tab
Creating personal tab
You can edit any tab online and save it as your Personal.

You can edit, replace or remove any tab part or add personal notes – all changes will be seen only by you.

Personal tabs can be accessed anytime from any device, even offline.
Learn more »
Give kudos to tab author, rate the tab!
1 2 3 4 5
comments
print report bad tab
guest
You may want to rate the tab now too:
select rating
Wanna post a correction for this tab? Suggest correction