Oops, an error
Loading. Please wait.

Mr Tambourine Man Tab

version 1
version 1

Whole song

Interactive

54,394 views 51 this week
no commentswrite comment
1 2 3 4 5
x 5
add to favorites
launch autoscroll
font size
0
reset
how to read this tab
guitar tuner
Autoscroll
slow
fast
+/-
esc
set tempo
stop
Help us to improve Ultimate-Guitar.com Take our survey!
×
Author
Difficulty
Tuning
Capo
intermediate
D A D G B E
3rd fret
Drop D tuning. Capo on 3rd fret, all chords relative to capo.

[Intro]
(strum lightly, and follow the rhythm.)
E|-------2----0----2----0-------------------------------|
B|-------3----3----3----3-------------------------------|
G|-------2----2----2----2-------------------------------|
D|-------0----0----0----0-------------------------------|
A|-------0----0----0----0-------------------------------|
D|------0----0----0----0--------------------------------|

[Chorus] (x2)
...Hey Mr. Tambourine man...
E|----3---------2----3----2---3---------------------------------------|
B|----3---------3----3----3---3---------------------------------------|
G|----0----2----2----0----2---0----2----------------------------------|
D|----0----2----0----0----0---0----2----------------------------------|
A|----2----0----0----2----0---2----0----------------------------------|
D|---------2-----------------------2----------------------------------|

[Pre-verse 1]
E|----2----0---3---2-----------------------------------------------|
B|----3----3---3---3-----------------------------------------------|
G|----2----2---2---2-----------------------------------------------|
D|----0----0---0---0-----------------------------------------------|
A|----0----0---0---0-----------------------------------------------|
D|-----------------------------------------------------------------|

[Verse] 
(Var.1, Part A  "1a")
E|----3---------2----3----2----3----2----3----------------------------------|
B|----3---------3----3----3----3----3----3----------------------------------|
G|----0----2----2----0----2----0----2----0---------2------------------------|
D|----0----2----0----0----0----0----0----0-----2---2------------------------|
A|----2----0----0----2----0----2----0----2-----2---0------------------------|
D|---------2-----------------------------------2---2------------------------|

[Chorus] (x2)
...Hey Mr. Tambourine man...
E|----3---------2----3----2---3---------------------------------------|
B|----3---------3----3----3---3---------------------------------------|
G|----0----2----2----0----2---0----2----------------------------------|
D|----0----2----0----0----0---0----2----------------------------------|
A|----2----0----0----2----0---2----0----------------------------------|
D|---------2-----------------------2----------------------------------|

[Pre-verse 2]
E|----2----0---3---2---0----3----------------------------------------|
B|----3----3---3---3---3----3----------------------------------------|
G|----2----2---2---2---2----2----------------------------------------|
D|----0----0---0---0---0----0----------------------------------------|
A|----0----0---0---0---0----0----------------------------------------|
D|-------------------------------------------------------------------|

[Verse]
(Var.2, Part A  "2a")
E|----3---------2----3----2---3---2---3---2----3---3---------------|
B|----3---------3----3----3---3---3---3---3----3---2---------------|
G|----0----2----2----0----2---0---2---0---2----0---3--------2------|
D|----0----2----0----0----0---0---0---0---0----0---0----2---2------|
A|----2----0----0----2----0---2---0---2---0----2---0----2---0------|
D|---------2--------------------------------------------2---2------|

[Chorus] (x2)
...Hey Mr. Tambourine man...
E|----3---------2----3----2---3---------------------------------------|
B|----3---------3----3----3---3---------------------------------------|
G|----0----2----2----0----2---0----2----------------------------------|
D|----0----2----0----0----0---0----2----------------------------------|
A|----2----0----0----2----0---2----0----------------------------------|
D|---------2-----------------------2----------------------------------|

[Verse] 
(Var.1, Part A  "1a")
E|----3---------2----3----2----3----2----3----------------------------------|
B|----3---------3----3----3----3----3----3----------------------------------|
G|----0----2----2----0----2----0----2----0---------2------------------------|
D|----0----2----0----0----0----0----0----0-----2---2------------------------|
A|----2----0----0----2----0----2----0----2-----2---0------------------------|
D|---------2-----------------------------------2---2------------------------|

[Pre-verse 2]
E|----2----0---3---2---0----3----------------------------------------|
B|----3----3---3---3---3----3----------------------------------------|
G|----2----2---2---2---2----2----------------------------------------|
D|----0----0---0---0---0----0----------------------------------------|
A|----0----0---0---0---0----0----------------------------------------|
D|-------------------------------------------------------------------|

[Verse]
(Var.3, Part A(first half) ("3a")
E|----3---------2----3----2---3---2---3---2----3---3--3--3----------------|
B|----3---------3----3----3---3---3---3---3----3---2--3--2----------------|
G|----0----2----2----0----2---0---2---0---2----0---3--0--0---------2------|
D|----0----2----0----0----0---0---0---0---0----0---0--0--0-----2---2------|
A|----2----0----0----2----0---2---0---2---0----2---0--2--0-----2---0------|
D|---------2---------------------------------------------------2---2------|

[Chorus] (x2)
...Hey Mr. Tambourine man...
E|----3---------2----3----2---3---------------------------------------|
B|----3---------3----3----3---3---------------------------------------|
G|----0----2----2----0----2---0----2----------------------------------|
D|----0----2----0----0----0---0----2----------------------------------|
A|----2----0----0----2----0---2----0----------------------------------|
D|---------2-----------------------2----------------------------------|

[Pre-verse 2]
E|----2----0---3---2---0----3----------------------------------------|
B|----3----3---3---3---3----3----------------------------------------|
G|----2----2---2---2---2----2----------------------------------------|
D|----0----0---0---0---0----0----------------------------------------|
A|----0----0---0---0---0----0----------------------------------------|
D|-------------------------------------------------------------------|

[Verse]
(Var.2, Part A  "2a")
E|----3---------2----3----2---3---2---3---2----3---3---------------|
B|----3---------3----3----3---3---3---3---3----3---2---------------|
G|----0----2----2----0----2---0---2---0---2----0---3--------2------|
D|----0----2----0----0----0---0---0---0---0----0---0----2---2------|
A|----2----0----0----2----0---2---0---2---0----2---0----2---0------|
D|---------2--------------------------------------------2---2------|

[Verse]
(Var.3, Part A(first half) ("3a")
E|----3---------2----3----2---3---2---3---2----3---3--3--3----------------|
B|----3---------3----3----3---3---3---3---3----3---2--3--2----------------|
G|----0----2----2----0----2---0---2---0---2----0---3--0--0---------2------|
D|----0----2----0----0----0---0---0---0---0----0---0--0--0-----2---2------|
A|----2----0----0----2----0---2---0---2---0----2---0--2--0-----2---0------|
D|---------2---------------------------------------------------2---2------|

[Verse]
(Var.3 Part B (second half) ("3b")
E|----3---------2----3----2---3---2---3---2---------------|
B|----3---------3----3----3---3---3---3---3---------------|
G|----0----2----2----0----2---0---2---0---2--------2------|
D|----0----2----0----0----0---0---0---0---0----2---2------|
A|----2----0----0----2----0---2---0---2---0----2---0------|
D|---------2-----------------------------------2---2------|

[Verse]
(Var.4, Part A) ("4a")
E|----3---------2----3----2---3---2---3---2----3---3--3--3---3-------------|
B|----3---------3----3----3---3---3---3---3----3---2--3--2---3-------------|
G|----0----2----2----0----2---0---2---0---2----0---3--0--0---0-------2-----|
D|----0----2----0----0----0---0---0---0---0----0---0--0--0---0---2---2-----|
A|----2----0----0----2----0---2---0---2---0----2---0--2--0---2---2---0-----|
D|---------2-----------------------------------------------------2---2-----|
Suggest correction
comments
print report bad tab
guest
You may want to rate the tab now too:
select rating
Wanna post a correction for this tab? Suggest correction