Oops, an error
Loading. Please wait.

One More Night Chords

version 1
version 1

Whole song

26,559 views 45 this week
3 commentsread comments
1 2 3 4 5
x 16
add to favorites
launch autoscroll
font size
0
reset
transpose
0
reset
display chords
guitar tuner
Autoscroll
slow
fast
+/-
esc
set tempo
stop
Help us to improve Ultimate-Guitar.com Take our survey!
×
Author
Difficulty
[Intro]
e|-----2-4-2----------------------------------------------------------------|
B|-2/4-------4-2------------------------------------------------------------|
G|---------------3-22-00----------------------------------------------------|
D|--------------------------------------------------------------------------|
A|--------------------------0-2-3-------------------------------------------|
E|------------------------3-------------------------------------------------|

[Verse 1]
C
One more night the stars are in sight
                   F               C
But tonight I'm as lonesome as can be
   F                   C       F                     C
Oh the moon is shining bright,lighting everything in sight
    C          F                 C
But tonight no light will shine on me

[Verse 2]
C
Oh it's shamefull and it's sad
            F         C
I lost the only pal I had
           F                      C
I couldn't be what she wanted me to be
  F                    C     F                      C
I will turn my head up high, to that dark and rollin' sky
    C          F                 C
But tonight no light will shine on me

[Chorus]
G          F            C                     Dm
I was so mistaken when I thought that you'd be true
C        Em         F                   G
I had no idea what a woman in love would do

[Verse 3]
C
One more night I will wait for the light
               F                  C
While the wind blows high above the trees
F                  C
Oh I miss my darling so
F                      C
I didn't mean to see her go
    C          F                  C
But tonight no light will shine on me

[Chorus]
G          F            C                     Dm
I was so mistaken when I thought that you'd be true
C        Em         F                   G
I had no idea what a woman in love would do

[Verse 4]
C
One more night I will wait for the light
               F                  C
While the wind blows high above the trees
F                  C
Oh I miss my darling so
F                      C
I didn't mean to see her go
    C          F                  C
But tonight no light will shine on me
Suggest correction
comments
print report bad tab
3 comments total.
0 reply
mantonmama 103 Nov 24, 2009 10:38 AM

Instead of C it should be G right before "But tonight no light will shine on me" in each verse, for example:

F C F G
Oh the moon is shining bright,lighting everything in sight

And the second verse should go:

Oh it's shamefull and it's sad

I lost the only pal I had
F C
I couldn't be what she wanted me to be
F C F G
I will turn my head up high, to that dark and rollin' sky
C F C
But tonight no light will shine on me

All the right chords are here, just a little mixed up. Pretty decent version though.

0 reply
mantonmama 103 Nov 24, 2009 10:41 AM

Crap, it erased it....well, it should be C all the way until (F)"....wanted me" (C) to be

0 reply
Justabitcrazy 72 Feb 05, 2011 12:09 AM

Good but the intro needs to be a half step up with a few tweaks:

INTRO:

e|-----3-5-3-----------3--1--1---3-------------3-3-----|
B|-3/5-------5-3---3---0--1--1---0-------------0-0-----|
G|---------------4-----0--2--2---0-------------0-0-----|
D|---------------------0--3--3---0-------------0-0-----|
A|---------------------2--3--3---2-------------2-2-0-2-|
E|---------------------3--1--1---3-------------3-3-----|

guest
You may want to rate the tab now too:
select rating
Wanna post a correction for this tab? Suggest correction