Oops, an error
Loading. Please wait.

Subterranean Homesick Blues tab

version 2
version 2

Whole song

Interactive

386 views 3 this week
no commentswrite comment
1 2 3 4 5
3 more votes to show rating
add to favorites
×
Save as Personal and add changes to this tab that will be seen only by you. Learn more ›
×
You can save this tab as Personal to edit and correct it or add notes. All changes will be seen only by you. Learn more »
launch autoscroll
font size
0
reset
how to read this tab
guitar tuner
backing track
0:00
0:00
edit
Autoscroll
slow
fast
+/-
esc
set tempo
stop
Author
Difficulty
SUBTERRANEAN HOMESICK BLUES

As recorded by Bob Dylan
(From the 1965 Album BRINGING IT ALL BACK HOME)

Words and Music by Bob Dylan

Transcribed by Slowhand


Gtr I (E A D G B E) - 'Bob Dylan - Acoustic Guitar'
Gtr II (E A D G B E) - 'John Hammond - Electric Guitar'
Gtr III (E A D G B E) - 'Bruce Langhorne - Electric Guitar'
Gtr IV (E A D G B E) - 'Bob Dylan - Harmonica'


 Intro
  Q=168(8=s8)
          A
 4/4
  Gtr I (Ac. Gtr.)
  H    Q  E E   Q  Q  +E  E  E E     Q   Q  +E  E E E
|-----------5-|----5--(5)-5--5-5-|-------5--(5)-5-5-5-|
|-----------5-|----5--(5)-5--5-5-|-------5--(5)-5-5-5-|
|-----------6-|----6--(6)-6--6-6-|-------6--(6)-6-6-6-|
|-----------7-|----7--(7)-7--7-7-|-------7--(7)-7-7-7-|
|-----------7-|----7--(7)-7----7-|-------7--(7)-7---7-|
|---------5---|-5---------5----5-|---5----------5---5-|
|
| Gtr II (El. Gtr.)
|                                    ~~~~
| W             H      Q     Q      +W
|-------------|-------------17---|-(17)---------------|
|-------------|------------------|--------------------|
|-------------|------------------|--------------------|
|-------------|------------------|--------------------|
|-------------|------------------|--------------------|
|-------------|------------------|--------------------|


   Q      Q     +E  E   E  E    Q    Q         +E   E   E E
|---------5-----(5)-5---5--5-|-------5---------(5)--5---5-5-|
|---------5-----(5)-5---5--5-|-------5---------(5)--5---5-5-|
|---------6-----(6)-6---6--6-|-------6---------(6)--6---6-6-|
|---------7-----(7)-7---7--7-|-------7---------(7)--7---7-7-|
|---------7-----(7)-7------7-|-------7---------(7)--7-----7-|
|--5----------------5------5-|--5-------------------5-----5-|
|
|  Q      Q      Q      E  E    E  Q    E      +Q       Q
|----------------------------|------------------------------|
|----------------------------|------------------------------|
|-17b19--17b19--17-----------|----17---19b20==(19)r----17---|
|----------------------19-17-|-19---------------------------|
|----------------------------|------------------------------|
|----------------------------|------------------------------|
|
| Gtr III (El. Gtr.)
|  q      Q      E  Q.          q    Q          E   Q.
|--0------0------0--2--------|--0----0----------0---2-------|
|--2------2------2--3--------|--2----2----------2---3-------|
|--2------2------2--2--------|--2----2----------2---2-------|
|--2------2------2--0--------|--2----2----------2---0-------|
|--0------0------0-----------|--0----0----------0-----------|
|----------------------------|------------------------------|


   Q       Q   +E  E   E  E    Q    Q     +E  E  E E
|----------5---(5)-5---5--5-|-------5-----(5)-5--5-5--||
|----------5---(5)-5---5--5-|-------5-----(5)-5--5-5--||
|----------6---(6)-6---6--6-|-------6-----(6)-6--6-6--||
|----------7---(7)-7---7--7-|-------7-----(7)-7--7-7--||
|----------7---(7)-7------7-|-------7-----(7)-7----7--||
|--5---------------5------5-|--5--------------5----5--||
|
|  Q       Q    Q      E  E    E  Q    E  +H
|---------------------------|-------------------------||
|---------------------------|-------------------------||
|-19b20===19r--17-----------|----17-------------------||
|---------------------19-17-|-19------19-(19)---------||
|---------------------------|-------------------------||
|---------------------------|-------------------------||
|
|  q       Q    E  Q.          q    Q      E  Q.
|--0-------0----0--2--------|--0----0------0--2-------||
|--2-------2----2--3--------|--2----2------2--3-------||
|--2-------2----2--2--------|--2----2------2--2-------||
|--2-------2----2--0--------|--2----2------2--0-------||
|--0-------0----0-----------|--0----0------0----------||
|---------------------------|-------------------------||


   1st & 2nd Verses
    A
    Q  Q  +E  E  E E   Q  Q  +E  E  E E   Q  Q  +E  E  E E   Q  Q  +E  E  E E
||-----5--(5)-5--5-5-|----5--(5)-5--5-5-|----5--(5)-5--5-5-|----5--(5)-5--5-5-|
||o----5--(5)-5--5-5-|----5--(5)-5--5-5-|----5--(5)-5--5-5-|----5--(5)-5--5-5-|
||-----6--(6)-6--6-6-|----6--(6)-6--6-6-|----6--(6)-6--6-6-|----6--(6)-6--6-6-|
||-----7--(7)-7--7-7-|----7--(7)-7--7-7-|----7--(7)-7--7-7-|----7--(7)-7--7-7-|
||o----7--(7)-7----7-|----7--(7)-7----7-|----7--(7)-7----7-|----7--(7)-7----7-|
||--5---------5----5-|-5---------5----5-|-5---------5----5-|-5---------5----5-|
|
|   Gtr III
|   q  Q   E  Q.       q  Q   E  Q.       q  Q   E  Q.       q  Q   E  Q.
||--0--0---0--2------|-0--0---0--2------|-0--0---0--2------|-0--0---0--2------|
||o-2--2---2--3------|-2--2---2--3------|-2--2---2--3------|-2--2---2--3------|
||--2--2---2--2------|-2--2---2--2------|-2--2---2--2------|-2--2---2--2------|
||--2--2---2--0------|-2--2---2--0------|-2--2---2--0------|-2--2---2--0------|
||o-0--0---0---------|-0--0---0---------|-0--0---0---------|-0--0---0---------|
||-------------------|------------------|------------------|------------------|


  Q  Q  +E  E  E E   Q  Q  +E  E  E E   Q  Q  +E  E  E E   Q  Q  +E  E  E E
|----5--(5)-5--5-5-|----5--(5)-5--5-5-|----5--(5)-5--5-5-|----5--(5)-5--5-5--||
|----5--(5)-5--5-5-|----5--(5)-5--5-5-|----5--(5)-5--5-5-|----5--(5)-5--5-5--||
|----6--(6)-6--6-6-|----6--(6)-6--6-6-|----6--(6)-6--6-6-|----6--(6)-6--6-6--||
|----7--(7)-7--7-7-|----7--(7)-7--7-7-|----7--(7)-7--7-7-|----7--(7)-7--7-7--||
|----7--(7)-7----7-|----7--(7)-7----7-|----7--(7)-7----7-|----7--(7)-7----7--||
|-5---------5----5-|-5---------5----5-|-5---------5----5-|-5---------5----5--||
|
| q  Q   E  Q.       q  Q   E  Q.       q  Q   E  Q.       q  Q   E  Q.
|-0--0---0--2------|-0--0---0--2------|-0--0---0--2------|-0--0---0--2-------||
|-2--2---2--3------|-2--2---2--3------|-2--2---2--3------|-2--2---2--3-------||
|-2--2---2--2------|-2--2---2--2------|-2--2---2--2------|-2--2---2--2-------||
|-2--2---2--0------|-2--2---2--0------|-2--2---2--0------|-2--2---2--0-------||
|-0--0---0---------|-0--0---0---------|-0--0---0---------|-0--0---0----------||
|------------------|------------------|------------------|-------------------||


 Chorus
  D7                                     A
  Q  Q   +E  E  E E   Q  Q  +E  E  E E   Q  Q  +E  E E E   Q  Q  +E  E E E
|----5---(5)-5--5-5-|----5--(5)-5--5-5-|----5--(5)-5-5-5-|----5--(5)-5-5-5--|
|----7---(7)-7--7-7-|----7--(7)-7--7-7-|----5--(5)-5-5-5-|----5--(5)-5-5-5--|
|----5---(5)-5--5-5-|----5--(5)-5--5-5-|----6--(6)-6-6-6-|----6--(6)-6-6-6--|
|----7---(7)-7----7-|----7--(7)-7----7-|----7--(7)-7-7-7-|----7--(7)-7-7-7--|
|-5----------5----5-|-5---------5----5-|----7--(7)-7---7-|----7--(7)-7---7--|
|-------------------|------------------|-5---------5---5-|-5---------5---5--|
|
| q  E E  E  Q.       q  q   E  Q.       q  Q  +E  E Q     q  Q  +E  E Q
|-2--2-x--x--2------|-2--2------2------|-0--0--(0)-0-0---|-0--0--(0)-0-0----|
|-3--3-x--x--3------|-3--3------3------|-2--2--(2)-2-2---|-2--2--(2)-2-2----|
|-2--2-x--x--2------|-2--2------2------|-2--2--(2)-2-2---|-2--2--(2)-2-2----|
|-0--0-x--x--0------|-0--0------0------|-2--2--(2)-2-2---|-2--2--(2)-2-2----|
|-------------------|------------------|-0--0--(0)-0-0---|-0--0--(0)-0-0----|
|-------------------|------------------|-----------------|------------------|


                                        E
  Q  Q  +E  E  E E   Q  Q  +E  E  E E   Q  Q  +E  E E E   Q  Q  +E  E E E
|----5--(5)-5--5-5-|----5--(5)-5--5-5-|----7--(7)-7-7-7-|----7--(7)-7-7-7--|
|----5--(5)-5--5-5-|----5--(5)-5--5-5-|----9--(9)-9-9-9-|----9--(9)-9-9-9--|
|----6--(6)-6--6-6-|----6--(6)-6--6-6-|----9--(9)-9-9-9-|----9--(9)-9-9-9--|
|----7--(7)-7--7-7-|----7--(7)-7--7-7-|----9--(9)-9---9-|----9--(9)-9---9--|
|----7--(7)-7----7-|----7--(7)-7----7-|-7---------7---7-|-7---------7---7--|
|-5---------5----5-|-5---------5----5-|-----------------|------------------|
|
| q  Q   E  Q.       q  Q   E  Q.       Q  Q  +E  E Q     Q  Q  +E  E Q
|-0--0---0--2------|-0--0---0--2------|-0--0--(0)-0-0---|-0--0--(0)-0-0----|
|-2--2---2--3------|-2--2---2--3------|-0--0--(0)-0-0---|-0--0--(0)-0-0----|
|-2--2---2--2------|-2--2---2--2------|-1--1--(1)-1-1---|-1--1--(1)-1-1----|
|-2--2---2--0------|-2--2---2--0------|-2--2--(2)-2-2---|-2--2--(2)-2-2----|
|-0--0---0---------|-0--0---0---------|-2--2--(2)-2-2---|-2--2--(2)-2-2----|
|------------------|------------------|-0--0--(0)-0-0---|-0--0--(0)-0-0----|


  A
  Q  Q  +E  E E E   Q   Q   +E  E E E
|----5--(5)-5-5-5-|-----5---(5)-5-5-5-||
|----5--(5)-5-5-5-|-----5---(5)-5-5-5-||
|----6--(6)-6-6-6-|-----6---(6)-6-6-6-||
|----7--(7)-7-7-7-|-----7---(7)-7-7-7-||
|----7--(7)-7---7-|-----7---(7)-7---7-||
|-5---------5---5-|-5-----------5---5-||
|
| Q  Q  +E  E Q     E E E E +E  E Q
|-0--0--(0)-0-0---|-0-0-0-0-(0)-0-0---||
|-2--2--(2)-2-2---|-2-2-2-2-(2)-2-2---||
|-2--2--(2)-2-2---|-2-2-2-2-(2)-2-2---||
|-2--2--(2)-2-2---|-2-2-2-2-(2)-2-2---||
|-0--0--(0)-0-0---|-0-0-0-0-(0)-0-0---||
|-----------------|-------------------||
|
| Gtr IV
| W                 W
|-----------------|-------------------||
|-----------------|-------------------||
|-----------------|-------------------||
|-----------------|-------------------||
|-----------------|-------------------||
|-----------------|-------------------||


 Interlude
 1.
  A
   Q   Q   +E  E   E  E    Q  Q  +E   E  E E
|------5---(5)-5---5--5-|-----5--(5)--5--5-5--|
|------5---(5)-5---5--5-|-----5--(5)--5--5-5--|
|------6---(6)-6---6--6-|-----6--(6)--6--6-6--|
|------7---(7)-7---7--7-|-----7--(7)--7--7-7--|
|------7---(7)-7------7-|-----7--(7)--7----7--|
|--5-----------5------5-|--5----------5----5--|
|
|  q   Q    E  Q.          q  Q   E   Q.
|--0---0----0--2--------|--0--0---0---0-------|
|--2---2----2--3--------|--2--2---2---2-------|
|--2---2----2--2--------|--2--2---2---2-------|
|--2---2----2--0--------|--2--2---2---2-------|
|--0---0----0-----------|--0--0---0---0-------|
|-----------------------|---------------------|
|
|      ~~~~~~~~            ~~
|  Q   Q   +Q      E  E    H      E   Q.
|-12--------------------|------------10-------|
|-14--15--(15)----12-15-|-10-----10--12-------|
|-----------------------|---------------------|
|-----------------------|---------------------|
|-----------------------|---------------------|
|-----------------------|---------------------|


                                          2.
   Q  Q  +E  E  E E   Q  Q  +E  E  E E     Q    Q     +E  E  E E
|-----5--(5)-5--5-5-|----5--(5)-5--5-5--||------5-----(5)-5--5-5-|
|-----5--(5)-5--5-5-|----5--(5)-5--5-5-o||------5-----(5)-5--5-5-|
|-----6--(6)-6--6-6-|----6--(6)-6--6-6--||------6-----(6)-6--6-6-|
|-----7--(7)-7--7-7-|----7--(7)-7--7-7--||------7-----(7)-7--7-7-|
|-----7--(7)-7----7-|----7--(7)-7----7-o||------7-----(7)-7----7-|
|--5---------5----5-|-5---------5----5--||-5--------------5----5-|
|
|  q  Q   E  Q.       q  Q   E  Q.         q    Q      E  Q.
|--0--0---0--2------|-0--0---0--2-------||-0----0------0--2------|
|--2--2---2--3------|-2--2---2--3------o||-2----2------2--3------|
|--2--2---2--2------|-2--2---2--2-------||-2----2------2--2------|
|--2--2---2--0------|-2--2---2--0-------||-2----2------2--0------|
|--0--0---0---------|-0--0---0---------o||-0----0------0---------|
|-------------------|-------------------||-----------------------|
|
|                                          Gtr IV (Harmonica arr. for Gtr.)
|                                                  ~~~~~~~
|  q  Q   H           W                    E  Q    E  +H
|-------------------|-------------------||---14------------------|
|-10----------------|------------------o||---15---17-(17)--------|
|-------------------|-------------------||-----------------------|
|-------------------|-------------------||-----------------------|
|-------------------|------------------o||-----------------------|
|-------------------|-------------------||-----------------------|


    Q      Q   +E   E  E E    Q   Q   +E  E  E E   Q  Q  +E  E  E E
|----------5---(5)--5--5-5-|------5---(5)-5--5-5-|----5--(5)-5--5-5-||
|----------5---(5)--5--5-5-|------5---(5)-5--5-5-|----5--(5)-5--5-5-||
|----------6---(6)--6--6-6-|------6---(6)-6--6-6-|----6--(6)-6--6-6-||
|----------7---(7)--7--7-7-|------7---(7)-7--7-7-|----7--(7)-7--7-7-||
|----------7---(7)--7----7-|------7---(7)-7----7-|----7--(7)-7----7-||
|---5---------------5----5-|--5-----------5----5-|-5---------5----5-||
|
|   q      Q    E   Q.        q   Q    E  Q.       q  Q   E  Q.
|---0------0----0---0------|--0---0----0--2------|-0--0---0--2------||
|---2------2----2---2------|--2---2----2--3------|-2--2---2--3------||
|---2------2----2---2------|--2---2----2--2------|-2--2---2--2------||
|---2------2----2---2------|--2---2----2--0------|-2--2---2--0------||
|---0------0----0---0------|--0---0----0---------|-0--0---0---------||
|--------------------------|---------------------|------------------||
|
|   ~~~~                          ~~~
|  +E   E  Q   +E   Q.        Q   H.               W
|--------------------------|---------------------|------------------||
|-(17)-15----------15------|-14--14--------------|------------------||
|---------14--(14)-16------|-14------------------|------------------||
|--------------------------|---------------------|------------------||
|--------------------------|---------------------|------------------||
|--------------------------|---------------------|------------------||


   3rd & 4th Verses
    A
    Q  Q  +E  E  E E   Q  Q  +E  E  E E   Q  Q  +E  E  E E   Q  Q  +E  E  E E
||-----5--(5)-5--5-5-|----5--(5)-5--5-5-|----5--(5)-5--5-5-|----5--(5)-5--5-5-|
||o----5--(5)-5--5-5-|----5--(5)-5--5-5-|----5--(5)-5--5-5-|----5--(5)-5--5-5-|
||-----6--(6)-6--6-6-|----6--(6)-6--6-6-|----6--(6)-6--6-6-|----6--(6)-6--6-6-|
||-----7--(7)-7--7-7-|----7--(7)-7--7-7-|----7--(7)-7--7-7-|----7--(7)-7--7-7-|
||o----7--(7)-7----7-|----7--(7)-7----7-|----7--(7)-7----7-|----7--(7)-7----7-|
||--5---------5----5-|-5---------5----5-|-5---------5----5-|-5---------5----5-|
|
|   q  Q   E  Q.       q  Q   E  Q.       q  Q   E  Q.       q  Q   E  Q.
||--0--0---0--2------|-0--0---0--2------|-0--0---0--2------|-0--0---0--2------|
||o-2--2---2--3------|-2--2---2--3------|-2--2---2--3------|-2--2---2--3------|
||--2--2---2--2------|-2--2---2--2------|-2--2---2--2------|-2--2---2--2------|
||--2--2---2--0------|-2--2---2--0------|-2--2---2--0------|-2--2---2--0------|
||o-0--0---0---------|-0--0---0---------|-0--0---0---------|-0--0---0---------|
||-------------------|------------------|------------------|------------------|


  Q  Q  +E  E  E E   Q  Q  +E  E  E E   Q  Q  +E  E  E E   Q  Q  +E  E  E E
|----5--(5)-5--5-5-|----5--(5)-5--5-5-|----5--(5)-5--5-5-|----5--(5)-5--5-5--||
|----5--(5)-5--5-5-|----5--(5)-5--5-5-|----5--(5)-5--5-5-|----5--(5)-5--5-5--||
|----6--(6)-6--6-6-|----6--(6)-6--6-6-|----6--(6)-6--6-6-|----6--(6)-6--6-6--||
|----7--(7)-7--7-7-|----7--(7)-7--7-7-|----7--(7)-7--7-7-|----7--(7)-7--7-7--||
|----7--(7)-7----7-|----7--(7)-7----7-|----7--(7)-7----7-|----7--(7)-7----7--||
|-5---------5----5-|-5---------5----5-|-5---------5----5-|-5---------5----5--||
|
| q  Q   E  Q.       q  Q   E  Q.       q  Q   E  Q.       q  Q   E  Q.
|-0--0---0--2------|-0--0---0--2------|-0--0---0--2------|-0--0---0--2-------||
|-2--2---2--3------|-2--2---2--3------|-2--2---2--3------|-2--2---2--3-------||
|-2--2---2--2------|-2--2---2--2------|-2--2---2--2------|-2--2---2--2-------||
|-2--2---2--0------|-2--2---2--0------|-2--2---2--0------|-2--2---2--0-------||
|-0--0---0---------|-0--0---0---------|-0--0---0---------|-0--0---0----------||
|------------------|------------------|------------------|-------------------||


 Chorus
  1.
  D7                                    A
  Q  Q    Q    E E   Q  Q  +E  E  E E   Q  Q  +E  E  E E   Q  Q  +E  E E E
|----5---------5-5-|----5--(5)-5--5-5-|----5--(5)-5--5-5-|----5--(5)-5-5-5--|
|----7---------7-7-|----7--(7)-7--7-7-|----5--(5)-5--5-5-|----5--(5)-5-5-5--|
|----5---------5-5-|----5--(5)-5--5-5-|----6--(6)-6--6-6-|----6--(6)-6-6-6--|
|----7---------7-7-|----7--(7)-7--7-7-|----7--(7)-7--7-7-|----7--(7)-7-7-7--|
|-5--5----5----5-5-|-5--5--(5)-5--5-5-|----7--(7)-7----7-|----7--(7)-7---7--|
|------------------|------------------|-5---------5----5-|-5---------5---5--|
|
| Q  E E +E  Q   E   q  Q   E  Q.       q  Q   E  Q.       q  Q   E  E E E
|----2-0-(0)-2---0-|-2--2---0--2------|-0--0---0--2------|-0--0---0--0-0-0--|
|----3-3-(3)-3---3-|-3--3---3--3------|-2--2---2--3------|-2--2---2--2-2-2--|
|----2-2-(2)-2---2-|-2--2---2--2------|-2--2---2--2------|-2--2---2--2-2-2--|
|----0-0-(0)-0---0-|-0--0---0--0------|-2--2---2--0------|-2--2---2--2-2-2--|
|------------------|------------------|-0--0---0---------|-0--0---0--0-0-0--|
|------------------|------------------|------------------|------------------|


                    E
  Q  Q  +E  E E E   Q  Q  +E  E  E  E   Q  Q  +E  E E E   Q  Q  +E  E  E E
|----5--(5)-5-5-5-|----7--(7)-7--7--7-|----7--(7)-7-7-7-|----5--(5)-5--5-5--|
|----5--(5)-5-5-5-|----9--(9)-9--9--9-|----9--(9)-9-9-9-|----5--(5)-5--5-5--|
|----6--(6)-6-6-6-|----9--(9)-9--9--9-|----9--(9)-9-9-9-|----6--(6)-6--6-6--|
|----7--(7)-7-7-7-|----9--(9)-9--9--9-|----9--(9)-9-9-9-|----7--(7)-7--7-7--|
|----7--(7)-7---7-|-7---------7-----7-|-7---------7---7-|----7--(7)-7----7--|
|-5---------5---5-|-------------------|-----------------|-5---------5----5--|
|
| q  Q   q    Q     q  Q   E  E +Q      q  Q   E  E E E   q  Q   E  Q.
|-0--0---0----0---|-0--0---0--0-(0)---|-0--0---0--0-0-0-|-0--0---0--2-------|
|-2--2---2----2---|-0--0---0--0-(0)---|-0--0---0--0-0-0-|-2--2---2--3-------|
|-2--2---2----2---|-1--1---1--1-(1)---|-1--1---1--1-1-1-|-2--2---2--2-------|
|-2--2---2----2---|-2--2---2--2-(2)---|-2--2---2--2-2-2-|-2--2---2--0-------|
|-0--0---0----0---|-2--2---2--2-(2)---|-2--2---2--2-2-2-|-0--0---0----------|
|-----------------|-0--0---0--0-(0)---|-0--0---0--0-0-0-|-------------------|


                     Interlude
  Q  Q  +E  E E  E      Q      Q  E  E  E E
|----5--(5)-5-5--5-||----------5--5-----5-5-|
|----5--(5)-5-5--5-||----------5--5-----5-5-|
|----6--(6)-6-6--6-||----------6--6--6--6-6-|
|----7--(7)-7-7--7-||----------7--7--7--7-7-|
|----7--(7)-7----7-||----------7--7--7----7-|
|-5---------5----5-||---5---------5--5----5-|
|
| q  Q   E  E E  E      q      Q  E  Q.
|-0--0---0--0-0--0-||---0------0--0--2------|
|-2--2---2--2-2--2-||---2------2--2--3------|
|-2--2---2--2-2--2-||---2------2--2--2------|
|-2--2---2--2-2--2-||---2------2--2--0------|
|-0--0---0--0-0--0-||---0------0--0---------|
|------------------||-----------------------|
|
| Gtr IV
| H      Q    E  E     +E   Q.    E  Q.
|------------------||-----------------------|
|---------------19-||-(19)-17---------------|
|---------------19-||-(19)-18---------------|
|------------------||---------------19------|
|------------------||-----------------------|
|------------------||-----------------------|


   Q   Q     E  E    E  E    Q  Q   E E   E  E
|------5-----5-------5--5-|-----5---5-----5--5--|
|------5-----5-------5--5-|-----5---5-----5--5--|
|------6-----6--6----6--6-|-----6---6-6---6--6--|
|------7-----7--7----7--7-|-----7---7-7---7--7--|
|------7-----7--7-------7-|-----7---7-7------7--|
|--5---------5--5-------5-|--5------5-5------5--|
|
|  q   Q     E  Q.           q  Q   E Q.
|--0---0-----0--2---------|--0--0---0-2---------|
|--2---2-----2--3---------|--2--2---2-3---------|
|--2---2-----2--2---------|--2--2---2-2---------|
|--2---2-----2--0---------|--2--2---2-0---------|
|--0---0-----0------------|--0--0---0-----------|
|-------------------------|---------------------|
|
|                                            ~~
|  Q   E  E  E  E   +Q       Q  Q   Q     E  E
|-------------------------|---------------------|
|--------------15--(15)---|---------------------|
|-------------------------|--------------19-----|
|-19--19-19-19------------|-19-----19-------19--|
|-------------------------|---------------------|
|-------------------------|---------------------|


                                                          Chorus
                                        2.
                                         A                 D7
    Q   Q  E E  E E   Q  Q  E E  E E     Q  Q  E E  E E    Q  Q   +E  E  E E
|-------5--5----5-5-|----5--5----5-5--||----5--5----5-5-||----5---(5)-5--5-5--|
|-------5--5----5-5-|----5--5----5-5-o||----5--5----5-5-||----7---(7)-7--7-7--|
|-------6--6-6--6-6-|----6--6-6--6-6--||----6--6-6--6-6-||----5---(5)-5--5-5--|
|-------7--7-7--7-7-|----7--7-7--7-7--||----7--7-7--7-7-||----7---(7)-7--7-7--|
|-------7--7-7----7-|----7--7-7----7-o||----7--7-7----7-||-5--5---(5)-5--5-5--|
|---5------5-5----5-|-5-----5-5----5--||-5-----5-5----5-||--------------------|
|
|   q   Q  E Q.       q  Q  E Q.         q  Q  E Q.        Q  E E +E  Q.
|---0---0--0-2------|-0--0--0-2-------||-0--0--0-2------||-2--0-2-(2)-0-------|
|---2---2--2-3------|-2--2--2-3------o||-2--2--2-3------||-3--3-3-(3)-3-------|
|---2---2--2-2------|-2--2--2-2-------||-2--2--2-2------||-2--2-2-(2)-2-------|
|---2---2--2-0------|-2--2--2-0-------||-2--2--2-0------||-0--0-0-(0)-0-------|
|---0---0--0--------|-0--0--0--------o||-0--0--0--------||--------------------|
|-------------------|-----------------||----------------||--------------------|
|
|   ~~~~
|  +W                 W                  W                 W
|-------------------|-----------------||----------------||--------------------|
|-------------------|----------------o||----------------||--------------------|
|-------------------|-----------------||----------------||--------------------|
|-(19)--------------|-----------------||----------------||--------------------|
|-------------------|----------------o||----------------||--------------------|
|-------------------|-----------------||----------------||--------------------|


                      A
  Q  Q   +E  E  E E   Q  Q  +E  E  E E   Q  Q  +E  E  E E   Q  Q  +E  E  E E
|----5---(5)-5--5-5-|----5--(5)-5--5-5-|----5--(5)-5--5-5-|----5--(5)-5--5-5--|
|----7---(7)-7--7-7-|----5--(5)-5--5-5-|----5--(5)-5--5-5-|----5--(5)-5--5-5--|
|----5---(5)-5--5-5-|----6--(6)-6--6-6-|----6--(6)-6--6-6-|----6--(6)-6--6-6--|
|----7---(7)-7--7-7-|----7--(7)-7--7-7-|----7--(7)-7--7-7-|----7--(7)-7--7-7--|
|-5--5---(5)-5--5-5-|----7--(7)-7----7-|----7--(7)-7----7-|----7--(7)-7----7--|
|-------------------|-5---------5----5-|-5---------5----5-|-5---------5----5--|
|
| Q  E E +E  Q.       q  Q   e  Q.       q  Q   e  Q.       q  Q   e  Q.
|-2--0-2-(2)-0------|-0--0---0--2------|-0--0---0--2------|-0--0---0--2-------|
|-3--3-3-(3)-3------|-2--2---2--3------|-2--2---2--3------|-2--2---2--3-------|
|-2--2-2-(2)-2------|-2--2---2--2------|-2--2---2--2------|-2--2---2--2-------|
|-0--0-0-(0)-0------|-2--2---2--0------|-2--2---2--0------|-2--2---2--0-------|
|-------------------|-0--0---0---------|-0--0---0---------|-0--0---0----------|
|-------------------|------------------|------------------|-------------------|


                     E                                     A
  Q  Q  +E  E  E E   Q  Q  +E  E E E   Q   Q   +E  E E E   Q  Q  +E  E  E E
|----5--(5)-5--5-5-|----7--(7)-7-7-7-|-----7---(7)-7-7-7-|----5--(5)-5--5-5--|
|----5--(5)-5--5-5-|----9--(9)-9-9-9-|-----9---(9)-9-9-9-|----5--(5)-5--5-5--|
|----6--(6)-6--6-6-|----9--(9)-9-9-9-|-----9---(9)-9-9-9-|----6--(6)-6--6-6--|
|----7--(7)-7--7-7-|----9--(9)-9-9-9-|-----9---(9)-9-9-9-|----7--(7)-7--7-7--|
|----7--(7)-7----7-|-7---------7---7-|-7-----------7---7-|----7--(7)-7----7--|
|-5---------5----5-|-----------------|-------------------|-5---------5----5--|
|
| q  Q   e  Q.       q  Q  +E  E E E   Q.    E +E  E E E   q  Q   e  Q.
|-0--0---0--2------|-0--0--(0)-0-0-0-|-0-----0-(0)-0-0-0-|-0--0---0--2-------|
|-2--2---2--3------|-0--0--(0)-0-0-0-|-0-----0-(0)-0-0-0-|-2--2---2--3-------|
|-2--2---2--2------|-1--1--(1)-1-1-1-|-1-----1-(1)-1-1-1-|-2--2---2--2-------|
|-2--2---2--0------|-2--2--(2)-2-2-2-|-2-----2-(2)-2-2-2-|-2--2---2--0-------|
|-0--0---0---------|-2--2--(2)-2-2-2-|-2-----2-(2)-2-2-2-|-0--0---0----------|
|------------------|-0--0--(0)-0-0-0-|-0-----0-(0)-0-0-0-|-------------------|


                    Outro
                     A
  Q  Q  +E  E E E     Q      Q    +E   E    E   E
|----5--(5)-5-5-5-||---------5----(5)--5----5---5-|
|----5--(5)-5-5-5-||---------5----(5)--5----5---5-|
|----6--(6)-6-6-6-||---------6----(6)--6----6---6-|
|----7--(7)-7-7-7-||---------7----(7)--7----7---7-|
|----7--(7)-7---7-||---------7----(7)--7--------7-|
|-5---------5---5-||--5----------------5--------5-|
|
| q  Q  +E  E E E     q      Q     e   Q.
|-0--0--(0)-0-0-0-||--0------0-----0---2----------|
|-2--2--(2)-2-2-2-||--2------2-----2---3----------|
|-2--2--(2)-2-2-2-||--2------2-----2---2----------|
|-2--2--(2)-2-2-2-||--2------2-----2---0----------|
|-0--0--(0)-0-0-0-||--0------0-----0--------------|
|-----------------||------------------------------|
|
| Gtr IV
| W                   E  E  +Q    +E   E   +E   E
|-----------------||------------------------------|
|-----------------||-19-17-(17)--(17)-15--(15)----|
|-----------------||-19-18-(18)--(18)-16--(16)----|
|-----------------||---------------------------18-|
|-----------------||------------------------------|
|-----------------||------------------------------|


   Q    Q   +E   E  E  E     Q       Q    +E   E    E  E
|-------5---(5)--5--5--5-|-----------5----(5)--5----5--5--|
|-------5---(5)--5--5--5-|-----------5----(5)--5----5--5--|
|-------6---(6)--6--6--6-|-----------6----(6)--6----6--6--|
|-------7---(7)--7--7--7-|-----------7----(7)--7----7--7--|
|-------7---(7)--7-----7-|-----------7----(7)--7-------7--|
|--5-------------5-----5-|---5-----------------5-------5--|
|
|  q    Q    e   Q.          q       Q     e   Q.
|--0----0----0---2-------|---0-------0-----0---2----------|
|--2----2----2---3-------|---2-------2-----2---3----------|
|--2----2----2---2-------|---2-------2-----2---2----------|
|--2----2----2---0-------|---2-------2-----2---0----------|
|--0----0----0-----------|---0-------0-----0--------------|
|------------------------|--------------------------------|
|
|  E E  E E  E   Q     E    +E   E  +Q    +E   E   +Q
|------------------------|--------------------------------|
|-14---14---14--15----17-|-(17)-17-(17)--(17)-19--(19)----|
|-14---14---14--16----18-|-(18)---------------19--(19)----|
|------------------------|--------------------------------|
|------------------------|--------------------------------|
|------------------------|--------------------------------|


  Q  Q  +E  E  E  E     Q    Q   +E  E  E E     Q   Q  +E  E  E E
|----5--(5)-5--5--5-|--------5---(5)-5--5-5-|-------5--(5)-5--5-5-*|
|----5--(5)-5--5--5-|--------5---(5)-5--5-5-|-------5--(5)-5--5-5-*|
|----6--(6)-6--6--6-|--------6---(6)-6--6-6-|-------6--(6)-6--6-6-*|
|----7--(7)-7--7--7-|--------7---(7)-7--7-7-|-------7--(7)-7--7-7-*|
|----7--(7)-7-----7-|--------7---(7)-7----7-|-------7--(7)-7----7-*|
|-5---------5-----5-|---5------------5----5-|---5----------5----5-*|
|
| q  Q   e  Q.          q    Q    e  Q.         q   Q   e  Q.
|-0--0---0--2-------|---0----0----0--2------|---0---0---0--2------*|
|-2--2---2--3-------|---2----2----2--3------|---2---2---2--3------*|
|-2--2---2--2-------|---2----2----2--2------|---2---2---2--2------*|
|-2--2---2--0-------|---2----2----2--0------|---2---2---2--0------*|
|-0--0---0----------|---0----0----0---------|---0---0---0---------*|
|-------------------|-----------------------|---------------------*|
|
|                            ~~~~~~~~~~~~~~~~~~~~~~
| H      Q     E  E    +Q    H.                +W
|-------------------|-------12--------------|-(12)----------------*|
|----------------15-|-(15)--14--------------|-(14)----------------*|
|----------------16-|-(16)------------------|---------------------*|
|-------------------|-----------------------|---------------------*|
|-------------------|-----------------------|---------------------*|
|-------------------|-----------------------|---------------------*|


Duration Legend
---------------
W - whole; H - half; Q - quarter; E - 8th; S - 16th; T - 32nd; X - 64th; a - acciaccatura
+ - note tied to previous; . - note dotted; .. - note double dotted
Uncapitalized letters represent notes that are staccato (1/2 duration)
Irregular groupings are notated above the duration line
Duration letters will always appear directly above the note/fret number it represents the
duration for.  Duration letters with no fret number below them represent rests.  Multi-
bar rests are notated in the form Wxn, where n is the number of bars to rest for.  Low
melody durations appear below the staff

Tablature Legend
----------------
 h   - hammer-on
 p   - pull-off
 b   - bend
 pb  - pre-bend
 r   - bend release (if no number after the r, then release immediately)
 /\  - slide into or out of (from/to "nowhere")
 s   - legato slide
 S   - shift slide
  - natural harmonic
[n]  - artificial harmonic
n(n) - tapped harmonic
 ~   - vibrato
 tr  - trill
 T   - tap
 TP  - trem. picking
 PM  - palm muting
\n/  - tremolo bar dip; n = amount to dip
 \n  - tremolo bar down
 n/  - tremolo bar up
/n\  - tremolo bar inverted dip
 =   - hold bend; also acts as connecting device for hammers/pulls
 <>  - volume swell (louder/softer)
 x   - on rhythm slash represents muted slash
 o   - on rhythm slash represents single note slash

Misc Legend
-----------
 |  - bar
||  - double bar
||o - repeat start
o|| - repeat end
*|  - double bar (ending)
 :  - bar (freetime)
 $  - Segno
 &  - Coda
Tempo markers -  = BPM(8/16=s8/s16), where s8 = swing 8ths, s16 = swing 16ths

            
            
Suggest correction
Creating personal tab
Creating personal tab
You can edit any tab online and save it as your Personal.

You can edit, replace or remove any tab part or add personal notes – all changes will be seen only by you.

Personal tabs can be accessed anytime from any device, even offline.
Learn more »
Give kudos to tab author, rate the tab!
1 2 3 4 5
comments
print report bad tab
guest
You may want to rate the tab now too:
select rating
Wanna post a correction for this tab? Suggest correction