Oops, an error
Loading. Please wait.
We have an official The Times They Are A-Changin tab made by UG professional guitarists. Check out the tab »
×
30,322 views 24 this week
2 commentsread comments
1 2 3 4 5
x 7
add to favorites
×
Save as Personal and add changes to this tab that will be seen only by you. Learn more ›
×
You can save this tab as Personal to edit and correct it or add notes. All changes will be seen only by you. Learn more »
launch autoscroll
font size
0
reset
how to read this tab
guitar tuner
edit
Autoscroll
slow
fast
+/-
esc
set tempo
stop
Difficulty
intermediate

  (PLEASE NOTE: I TRANSLATED THIS TAB FROM THE CHORDS THAT ARE PROVIDED     FROM 
OTHERS I SPENT ALOT OF TIME ON THIS SO APPRECIATE IT! THANKS AND ENJOY)

dpk009@live.com


Times they are a changing translated
     G             Em         C         G
Come gather 'round people wherever you  roam
e---3--3--3--3--0--0--0--0--0--0--3—-3--3--3--3--3--|
B---3--3--3--3--0--0--0--1--1—-1--3--3--3—-3--3--3--|
G---4--4--4--4--0--0--0--0--0--0--4--4--4—-4--4--4--| 
D---5--5--5—-5--3--3--3--2--2--2--5--5--5—-5--5--5--|
A---------------3--3--3--3--3--3--------------------|
E---------------3--3--3-----------------------------|
    G            Am      C              D
And admit that the waters around you have grown
E--3--3--3--3--0--0--0--0--0--0--2--2--2--2--2--2--2-|
B--3--3--3--3--1--1--1--1--1--1--3--3--3--3—-3--3--3-|
G--4--4--4--4--2--2--0--0--0--0--2--2--2--2--2--2--2-|
D--5--5--5--5--2--2--2--2--2--2--0--0--0--0--0--0--0-|
A--------------x--x--3--3--3--3----------------------|
E--------------3--3----------------------------------|
      G            Em             C               G
And accept it that soon you'll be drenched to the bone
E----3--3--3--3--0--0--0--0--0--0--0--0--3--3--3--3--3--3---|
B----3--3--3--3--0--0--0--0--1--1--1--1--3--3--3--3--3--3---|
G----4--4--4--4--0--0--0--0--0--0--0--0--4--4--4--4--4--4---|
D----5--5--5--5--3--3--3--3--2--2--2--2--5--5--5--5--5--5---|
A----------------3--3--3--3--3--3--3--3---------------------|
E----------------3--3--3--3---------------------------------|

        G       Am           D
If your time to you is worth savin'
E-3--3--3--3--0--0--0---2--2--2--2--2--2-------------------|
B-3--3--3--3--1--1--1---3--3--3--3--3--3-------------------|
G-4--4--4--4--0--0--0---2--2--2--2--2--2-------------------|
D-5--5--5--5--2--2--2---0--0--0--0--0--0-------------------|
A-------------x--x--x--------------------------------------|
E-------------3--3--3--------------------------------------|

         D            D7                 G           D
Then you better start swimmin' or you'll sink like a stone,
E--2--2--2--2--2--3--3--3--3--3---3--3--3--2--2--2--2-------|
B--3—-3--3--3--3--1—-1--1--1--1---3--3--3--3--3--3—-3-------|
G--2--2--2--2--2--2--2--2--2--2---4--4--4--2--2--2--2-------|
D--0--0--0--0--0------------------5--5--5--0--0--0--0-------|
A-----------------------------------------------------------|   
E-----------------------------------------------------------|




        G                 C    D  G
For the times, they are a chang - in'
E--2--3--3--3--3--3--0--0--2--3--3--3--3--3--3--3--3--------|
B--3--3--3--3--3--3—-1--1--3--3--3--3--3--3--3--3--3--------|
G--2--4--4--4--4--4--0--0--2--4--4--4--4--4--4--4--4--------|
D--0--5--5--5--5--5--2--2--0--5--5--5--5--5--5--5--5--------|
A--------------------3--3-----------------------------------|
E-----------------------------------------------------------|


     G             Em         C         G
Come writers and critics who prophecize with your pen
e---3--3--3--3--0--0--0--0--0--0--3—-3--3--3--3--3--|
B---3--3--3--3--0--0--0--1--1—-1--3--3--3—-3--3--3--|
G---4--4--4--4--0--0--0--0--0--0--4--4--4—-4--4--4--| 
D---5--5--5—-5--3--3--3--2--2--2--5--5--5—-5--5--5--|
A---------------3--3--3--3--3--3--------------------|
E---------------3--3--3-----------------------------|
    G            Am      C              D
And keep your eyes wide the chance won't come again                      
E--3--3--3--3--0--0--0--0--0--0--2--2--2--2--2--2--2-|
B--3--3--3--3--1--1--1--1--1--1--3--3--3--3—-3--3--3-|
G--4--4--4--4--2--2--0--0--0--0--2--2--2--2--2--2--2-|
D--5--5--5--5--2--2--2--2--2--2--0--0--0--0--0--0--0-|
A--------------x--x--3--3--3--3----------------------|
E--------------3--3----------------------------------|
      G            Em             C               G
And don't speak too soon for the wheel's still in spin
E----3--3--3--3--0--0--0--0--0--0--0--0--3--3--3--3--3--3---|
B----3--3--3--3--0--0--0--0--1--1--1--1--3--3--3--3--3--3---|
G----4--4--4--4--0--0--0--0--0--0--0--0--4--4--4--4--4--4---|
D----5--5--5--5--3--3--3--3--2--2--2--2--5--5--5--5--5--5---|
A----------------3--3--3--3--3--3--3--3---------------------|
E----------------3--3--3--3---------------------------------|

        G        Am          D
And there's  no  tellin' who that it's namin'                                  
E-3--3--3--3--0--0--0---2--2--2--2--2--2-------------------|
B-3--3--3--3--1--1--1---3--3--3--3--3--3-------------------|
G-4--4--4--4--0--0--0---2--2--2--2--2--2-------------------|
D-5--5--5--5--2--2--2---0--0--0--0--0--0-------------------|
A-------------x--x--x--------------------------------------|
E-------------3--3--3--------------------------------------|

 



        D            D7                 G          D
        For  the  loser  now  will  be  later  to  win
E--2--2--2--2--2--3--3--3--3--3---3--3--3--2--2--2--2-------|
B--3—-3--3--3--3--1—-1--1--1--1---3--3--3--3--3--3—-3-------|
G--2--2--2--2--2--2--2--2--2--2---4--4--4--2--2--2--2-------|
D--0--0--0--0--0------------------5--5--5--0--0--0--0-------|
A-----------------------------------------------------------|   
E-----------------------------------------------------------|




        G                 C    D  G
For the times, they are a chang - in'
E--2--3--3--3--3--3--0--0--2--3--3--3--3--3--3--3--3--------|
B--3--3--3--3--3--3—-1--1--3--3--3--3--3--3--3--3--3--------|
G--2--4--4--4--4--4--0--0--2--4--4--4--4--4--4--4--4--------|
D--0--5--5--5--5--5--2--2--0--5--5--5--5--5--5--5--5--------|
A--------------------3--3-----------------------------------|
E-----------------------------------------------------------|


     G             Em         C         G
     Come mothers and fathers throughout the land
e---3--3--3--3--0--0--0--0--0--0--3—-3--3--3--3--3--|
B---3--3--3--3--0--0--0--1--1—-1--3--3--3—-3--3--3--|
G---4--4--4--4--0--0--0--0--0--0--4--4--4—-4--4--4--| 
D---5--5--5—-5--3--3--3--2--2--2--5--5--5—-5--5--5--|
A---------------3--3--3--3--3--3--------------------|
E---------------3--3--3-----------------------------|
    G            Am      C              D
    And don't criticize  what you don't understand                                   
E--3--3--3--3--0--0--0--0--0--0--2--2--2--2--2--2--2-|
B--3--3--3--3--1--1--1--1--1--1--3--3--3--3—-3--3--3-|
G--4--4--4--4--2--2--0--0--0--0--2--2--2--2--2--2--2-|
D--5--5--5--5--2--2--2--2--2--2--0--0--0--0--0--0--0-|
A--------------x--x--3--3--3--3----------------------|
E--------------3--3----------------------------------|
      G             Em            C              G
Your  sons and your daughters are beyond  your   command
E----3--3--3--3--0--0--0--0--0--0--0--0--3--3--3--3--3--3---|
B----3--3--3--3--0--0--0--0--1--1--1--1--3--3--3--3--3--3---|
G----4--4--4--4--0--0--0--0--0--0--0--0--4--4--4--4--4--4---|
D----5--5--5--5--3--3--3--3--2--2--2--2--5--5--5--5--5--5---|
A----------------3--3--3--3--3--3--3--3---------------------|
E----------------3--3--3--3---------------------------------|

       G       Am           D
  Your old road is rapidly again'
E-3--3--3--3--0--0--0---2--2--2--2--2--2-------------------|
B-3--3--3--3--1--1--1---3--3--3--3--3--3-------------------|
G-4--4--4--4--0--0--0---2--2--2--2--2--2-------------------|
D-5--5--5--5--2--2--2---0--0--0--0--0--0-------------------|
A-------------x--x--x--------------------------------------|
E-------------3--3--3--------------------------------------|

        D            D7                 G           D
 Please get out of the new one if you can't lend a hand
E--2--2--2--2--2--3--3--3--3--3---3--3--3--2--2--2--2-------|
B--3—-3--3--3--3--1—-1--1--1--1---3--3--3--3--3--3—-3-------|
G--2--2--2--2--2--2--2--2--2--2---4--4--4--2--2--2--2-------|
D--0--0--0--0--0------------------5--5--5--0--0--0--0-------|
A-----------------------------------------------------------|   
E-----------------------------------------------------------|




        G                 C    D  G
For the times, they are a chang - in'
E--2--3--3--3--3--3--0--0--2--3--3--3--3--3--3--3--3--------|
B--3--3--3--3--3--3—-1--1--3--3--3--3--3--3--3--3--3--------|
G--2--4--4--4--4--4--0--0--2--4--4--4--4--4--4--4--4--------|
D--0--5--5--5--5--5--2--2--0--5--5--5--5--5--5--5--5--------|
A--------------------3--3-----------------------------------|
E-----------------------------------------------------------|

     G             Em         C         G
Come senators, congressmen please heed the call
e---3--3--3--3--0--0--0--0--0--0--3—-3--3--3--3--3--|
B---3--3--3--3--0--0--0--1--1—-1--3--3--3—-3--3--3--|
G---4--4--4--4--0--0--0--0--0--0--4--4--4—-4--4--4--| 
D---5--5--5—-5--3--3--3--2--2--2--5--5--5—-5--5--5--|
A---------------3--3--3--3--3--3--------------------|
E---------------3--3--3-----------------------------|
    G            Am      C              D
Don't stand in the doorway, don't block up the hall
E--3--3--3--3--0--0--0--0--0--0--2--2--2--2--2--2--2-|
B--3--3--3--3--1--1--1--1--1--1--3--3--3--3—-3--3--3-|
G--4--4--4--4--2--2--0--0--0--0--2--2--2--2--2--2--2-|
D--5--5--5--5--2--2--2--2--2--2--0--0--0--0--0--0--0-|
A--------------x--x--3--3--3--3----------------------|
E--------------3--3----------------------------------|
      G            Em             C               G
  For he that gets hurt will be he who has stalled
E----3--3--3--3--0--0--0--0--0--0--0--0--3--3--3--3--3--3---|
B----3--3--3--3--0--0--0--0--1--1--1--1--3--3--3--3--3--3---|
G----4--4--4--4--0--0--0--0--0--0--0--0--4--4--4--4--4--4---|
D----5--5--5--5--3--3--3--3--2--2--2--2--5--5--5--5--5--5---|
A----------------3--3--3--3--3--3--3--3---------------------|
E----------------3--3--3--3---------------------------------|

        G        Am           D
There's a battle outside and it's ragin'
E-3--3--3--3--0--0--0---2--2--2--2--2--2-------------------|
B-3--3--3--3--1--1--1---3--3--3--3--3--3-------------------|
G-4--4--4--4--0--0--0---2--2--2--2--2--2-------------------|
D-5--5--5--5--2--2--2---0--0--0--0--0--0-------------------|
A-------------x--x--x--------------------------------------|
E-------------3--3--3--------------------------------------|

         D            D7                 G          D
It'll soon shake your windows and rattle your walls
E--2--2--2--2--2--3--3--3--3--3---3--3--3--2--2--2--2-------|
B--3—-3--3--3--3--1—-1--1--1--1---3--3--3--3--3--3—-3-------|
G--2--2--2--2--2--2--2--2--2--2---4--4--4--2--2--2--2-------|
D--0--0--0--0--0------------------5--5--5--0--0--0--0-------|
A-----------------------------------------------------------|   
E-----------------------------------------------------------|




        G                 C    D  G
For the times, they are a chang - in'
E--2--3--3--3--3--3--0--0--2--3--3--3--3--3--3--3--3--------|
B--3--3--3--3--3--3—-1--1--3--3--3--3--3--3--3--3--3--------|
G--2--4--4--4--4--4--0--0--2--4--4--4--4--4--4--4--4--------|
D--0--5--5--5--5--5--2--2--0--5--5--5--5--5--5--5--5--------|
A--------------------3--3-----------------------------------|
E-----------------------------------------------------------|

     G             Em         C         G
The line it is drawn the curse it is cast
e---3--3--3--3--0--0--0--0--0--0--3—-3--3--3--3--3--|
B---3--3--3--3--0--0--0--1--1—-1--3--3--3—-3--3--3--|
G---4--4--4--4--0--0--0--0--0--0--4--4--4—-4--4--4--| 
D---5--5--5—-5--3--3--3--2--2--2--5--5--5—-5--5--5--|
A---------------3--3--3--3--3--3--------------------|
E---------------3--3--3-----------------------------|
   
     G            Am     C              D
     The slow one now will later be fast
E--3--3--3--3--0--0--0--0--0--0--2--2--2--2--2--2--2-|
B--3--3--3--3--1--1--1--1--1--1--3--3--3--3—-3--3--3-|
G--4--4--4--4--2--2--0--0--0--0--2--2--2--2--2--2--2-|
D--5--5--5--5--2--2--2--2--2--2--0--0--0--0--0--0--0-|
A--------------x--x--3--3--3--3----------------------|
E--------------3--3----------------------------------|
      G             Em             C               G
              As the present now will later be past
E----3--3--3--3--0--0--0--0--0--0--0--0--3--3--3--3--3--3---|
B----3--3--3--3--0--0--0--0--1--1--1--1--3--3--3--3--3--3---|
G----4--4--4--4--0--0--0--0--0--0--0--0--4--4--4--4--4--4---|
D----5--5--5--5--3--3--3--3--2--2--2--2--5--5--5--5--5--5---|
A----------------3--3--3--3--3--3--3--3---------------------|
E----------------3--3--3--3---------------------------------|

        G       Am           D
    The order is rapidly fadin'
E-3--3--3--3--0--0--0---2--2--2--2--2--2-------------------|
B-3--3--3--3--1--1--1---3--3--3--3--3--3-------------------|
G-4--4--4--4--0--0--0---2--2--2--2--2--2-------------------|
D-5--5--5--5--2--2--2---0--0--0--0--0--0-------------------|
A-------------x--x--x--------------------------------------|
E-------------3--3--3--------------------------------------|

         D            D7                 G           D
    And the first one now will later be  last
E--2--2--2--2--2--3--3--3--3--3---3--3--3--2--2--2--2-------|
B--3—-3--3--3--3--1—-1--1--1--1---3--3--3--3--3--3—-3-------|
G--2--2--2--2--2--2--2--2--2--2---4--4--4--2--2--2--2-------|
D--0--0--0--0--0------------------5--5--5--0--0--0--0-------|
A-----------------------------------------------------------|   
E-----------------------------------------------------------|




        G                 C    D  G
For the times, they are a chang - in'
E--2--3--3--3--3--3--0--0--2--3--3--3--3--3--3--3--3--------|
B--3--3--3--3--3--3—-1--1--3--3--3--3--3--3--3--3--3--------|
G--2--4--4--4--4--4--0--0--2--4--4--4--4--4--4--4--4--------|
D--0--5--5--5--5--5--2--2--0--5--5--5--5--5--5--5--5--------|
A--------------------3--3-----------------------------------|
E-----------------------------------------------------------|


            
            
Suggest correction
Creating personal tab
Creating personal tab
You can edit any tab online and save it as your Personal.

You can edit, replace or remove any tab part or add personal notes – all changes will be seen only by you.

Personal tabs can be accessed anytime from any device, even offline.
Learn more »
comments
print report bad tab
2 comments total.
0 reply
qwasrepo 10 Feb 10, 2010 08:43 AM

hi its me the writer my email is acually qwasrepo@gmail

0 reply
BASS_LUVA 13 Mar 28, 2017 01:42 PM

Hey maybe instead of this:

G Em C G
Come gather 'round people wherever you roam
e---3--3--3--3--0--0--0--0--0--0--3—-3--3--3--3--3--|
B---3--3--3--3--0--0--0--1--1—-1--3--3--3—-3--3--3--|
G---4--4--4--4--0--0--0--0--0--0--4--4--4—-4--4--4--|
D---5--5--5—-5--3--3--3--2--2--2--5--5--5—-5--5--5--|
A---------------3--3--3--3--3--3--------------------|
E---------------3--3--3-----------------------------|

Try this:

G Em/G C2/G G
Come gather 'round people wherever you roam
e---3--3--3--3--0--0--0--0--0--0--3—-3--3--3--3--3--|
B---3--3--3--3--0--0--0--1--1—-1--3--3--3—-3--3--3--|
G---4--4--4--4--0--0--0--0--0--0--4--4--4—-4--4--4--|
D---5--5--5—-5--2--2--2--0--0--0--5--5--5—-5--5--5--|
A---X--X--X--X--2--2--2--3--3--3--------------------|
E---3--3--3--3--3--3--3--3--3--3--------------------|
T T T T

Wrapping the thumb around to hit the G on the low E string gives the G a bit more depth, the Em becomes an Em/G, and the C becomes C2/G. Overall pretty good, I just found the original G to be a bit too tinny and the Em sounded shitty.

guest
Wanna post a correction for this tab? Suggest correction