Oops, an error
Loading. Please wait.

Two Trains Runnin Tab

753 views 1 this week
no commentswrite comment
1 2 3 4 5
3 more votes to show rating
add to favorites
launch autoscroll
font size
0
reset
how to read this tab
guitar tuner
Autoscroll
slow
fast
+/-
esc
set tempo
stop
Help us to improve Ultimate-Guitar.com Take our survey!
×
Author
Two Trains Runnin' - Bob Dylan





Open D tuning (D-A-d-f#-a-d')

[intro:]

  :     .     .       :     .       :     .     .       .     :     .     
|-------------------|-------------|---------0-----0---------|-------------|
|---0-----0---------|-------------|-------------------------|-------------|
|/3---3-3---3-------|-------------|------/3---3/3---3-------|-------------|
|-------------5-3-0-|-----------0-|-------------------5p3-0-|-----------0-|
|-------------------|-------0-3---|-------------------------|-------0h3---|
|-------0-----0-----|-0---0-0-----|-0---0-------0-----0-----|-0---0-0-----|

  :     .     .     .     .       :     .       :     .     .     .       :     .    
|-----3~~~~~~3p0--0---0---------|-------------|---------------0---------|------------|
|-------------0-----------------|-------------|---------3---------------|------------|
|------------------/3---3-------|-------------|------/3---3/3---3-------|------------|
|-------------------------5p3-0-|-----------0-|-------------------5p3-0-|----------0-|
|-------------------------------|-------0h3---|-------------------------|------0h3---|
|-0---0-0---0-0-----0---0-------|-0---0-0-----|-0---0-0---0-0---0-0---0-|0---0-------|

  :     .     .     .    .     .     .       :     .       :     .     .     . 
|-----3-3---3-3p0-0------------------------|-------------|-------------------------|
|----------------------------3~~~~~~-------|-------------|------/3-3-----3---------|
|----------------------2/3---3~~~~~~-------|-------------|------/3---3/3---3-------|
|------------------------------------5p3-0-|-------------|-------------------5p3-0-|
|------------------------------------------|-------0p3-0-|-------------------------|
|-0---x-x---x-x-----0----0---0-0---0-0-----|-0---0-0---0-|-0---0-0---0-0---0-0-----|

  :     .     .     .       :
|-------------------------|-------
|-------------------------|-------
|-------------------------|-------
|-------------------------|-------
|-------------------------|-------
|-0---0-0---0-0---0-0---0-|------- 
      Well, there's two . . .

     .         :  .  .   .     :     .  .   
Well there's two        trains running 
.              :    .  .  .       :  .  .  .
And they're running       this way
:       .     .     .  
One leaves at midnight
    :       .       .  .    :  
the other at the break of day
.        .   .    :
At the break of day
.        .   .    : 
At the break of day
Oh Lordy

  :     .     .     .       :     .     .     .       :     .     .     .     
|-------------------------|-------------------------|-------------------------|
|---3-----3-----3---------|------------------/3---3-|------------------/3-----|
|/3---3/3---3/3---3-------|------------------/3-----|-0h3--------------/3-----|
|-------------------5p3---|-----------0-------------|-------------------------|
|-----------------------0-|-------0h3---------------|-------------------------|
|-0---0-0---0-0---0-0-----|-0---0-0-----0---0-0-----|-0---0-0---0-0---0-0---0-|
other at the break  of  day     at the break of  day      at the break of  day

  :     .     .     .       :     .     .     .       :     .     .     .     
|-------------------3-----|-3p0---------------------|-------------------------|
|-0-----------------3-----|----(0)---/3~~~---~------|----------------/3-------|
|-0-----------------------|----------/3~~~~~--------|----------------/3-------|
|-------------------------|-------------------5p3-0-|-------------------------|
|-------------------------|-------------------------|-------------------------|
|-0---0-0---0-0---0-0---0-|-0---0-0---0-0---0-0---0-|-0---0-0---0-0---0-0---0-|
        oh, lordy                                         oh,  lordy

                                              *)            
  :     .     .     .       :     .     .     .       :     .     .     .     .     .
|-------------------|-----3-3-----3p0-0-------------|-----------------0-----0-------------|
|-------------------|-------------3p0--/3---3-------|-----------------0-----0-------------|
|-------------------|------------------/3-3---1p0---|-----------------0-----0-------------|
|-5p3-0-----------0-|-----------------------------0-|-----------0-------------------------|
|-------------0h3---|-------------------------------|-------0h3---------------------------|
|-------0---0-------|-0---0-0---0-0---0-0---0-0-----|-0---0-0-----0---0-0---0-0-----0-----|

--------------------------------------------------------------------------------

Basic figure during the last verse:
  :     .     .     .     
|---0-----0-----0-----0---|
|---0-----0-----0-----0---|
|-------------------------|
|-------------------------|
|-0---0-3---3-0---0-3---3-|
|-0---0-3---3-0---0-3---3-|
Suggest correction
Give kudos to tab author, rate the tab!
1 2 3 4 5
comments
print report bad tab
guest
You may want to rate the tab now too:
select rating
Wanna post a correction for this tab? Suggest correction