Oops, an error
Loading. Please wait.

Wedding Song Tab

6,968 views 3 this week
no commentswrite comment
1 2 3 4 5
1 last vote to show rating
add to favorites
launch autoscroll
font size
0
reset
how to read this tab
guitar tuner
Autoscroll
slow
fast
+/-
esc
set tempo
stop
Help us to improve Ultimate-Guitar.com Take our survey!
×
Author
Difficulty
-------------------------------------------------------------------------------
			     WEDDING SONG - Bob Dylan
-------------------------------------------------------------------------------
Tabbed by: PeledosSantos
Email: whatsnext4teamzissou@yahoo.com

Tuning: EADGbe

Please change the strum pattern to suit your liking.  The number below is just a ballpark figure anyway.

Intro/Verse

	Am		C			D
e|-----------------------------------------2-2-2-2-0h2-2-2-2-2-----------------|
B|-----1-1-1-1---------1-1-1-------1-1-----3-3-3-3-3-3-3-3-3-3-----------------|
G|-----2-2-2-2---------0-0-0-------0-0-----2-2-2-2-2-2-2-2-2-2-----------------|
D|-----2-2-2-2---------2-2-2--0h2--2-2--0--------------------------------------|
A|--0------------0h2-3-3-3-3---------------------------------------------------|
E|-----------------------------------------------------------------------------|

	Am		C			G
e|-----------------------------------------2-2-2-2---2-2-2-2-----------------|
B|-----1-1-1-1---------1-1-1-------1-1-----0-0-0-0---0-0-0-0-----------------|
G|-----2-2-2-2---------0-0-0-------0-0-----0-0-0-0---0-0-0-0-----------------|
D|-----2-2-2-2---------2-2-2--0h2--2-2-----0-0-0-0---0-0-0-0-----------------|
A|--0------------0h2-3-3-3-3---------------2-2-2-2---2-2-2-2-----------------|
E|--------------------------------------3--3-3-3-3-3-3-3-3-3-----------------|

Chorus

	F		C		Dm
e|-----1-1-1-1-1-------------------1-1-1-1-1-----1-1-1-1---------------------|
B|-----1-1-1-1-1-----1-1-1-1-1-----2-2-2-2-2-----2-2-2-2---------------------|
G|-----2-2-2-2-2-----0-0-0-0-0-----3-3-3-3-3-----3-3-3-3---------------------|
D|-----3-3-3-3-3-----2-2-2-2-2--0-------------0------------------------------|
A|-----3-3-3-3-3--3--3-3-3-3-3-----------------------------------------------|
E|--1--1-1-1-1-1-------------------------------------------------------------|

	Am		C			G   G/C    G
e|-----------------------------------------2-2-2-2--2-2--2-2-2-2-------------|
B|-----1-1-1-1---------1-1-1-------1-1-----0-0-0-0--1-1--0-0-0-0-------------|
G|-----2-2-2-2---------0-0-0-------0-0-----0-0-0-0--0-0--0-0-0-0-------------|
D|-----2-2-2-2---------2-2-2--0h2--2-2-----0-0-0-0--2-2--0-0-0-0-------------|
A|--0------------0h2-3-3-3-3---------------2-2-2-2--0-0--2-2-2-2-------------|
E|--------------------------------------3--3-3-3-3--3-3--3-3-3-3-------------|

(Am)I love you more than (C)ever, more than (D)time and more than love,
(Am)I love you more than (C)money and more (G)than the stars above,
(F)Love you more than (C)madness, more than (Dm)dreams upon the sea,
(Am)Love you more than (C)life itself, you (G G/C)mean that much to me.

Ever since you walked right in, the circle's been complete,
I've said goodbye to haunted rooms and faces in the street,
To the courtyard of the jester which is hidden from the sun,
I love you more than ever and I haven't yet begun.

You breathed on me and made my life a richer one to live,
When I was deep in poverty you taught me how to give,
Dried the tears up from my dreams and pulled me from the hole,
Quenched my thirst and satisfied the burning in my soul.

You gave me babies one, two, three, what is more, you saved my life,
Eye for eye and tooth for tooth, your love cuts like a knife,
My thoughts of you don't ever rest, they'd kill me if I lie,
I'd sacrifice the world for you and watch my senses die.

The tune that is yours and mine to play upon this earth,
We'll play it out the best we know, whatever it is worth,
What's lost is lost, we can't regain what went down in the flood,
But happiness to me is you and I love you more than blood.

It's never been my duty to remake the world at large,
Nor is it my intention to sound a battle charge,
'Cause I love you more than all of that with a love that doesn't bend,
And if there is eternity I'd love you there again.

Oh, can't you see that you were born to stand by my side
And I was born to be with you, you were born to be my bride,
You're the other half of what I am, you're the missing piece
And I love you more than ever with that love that doesn't cease.

You turn the tide on me each day and teach my eyes to see,
Just bein' next to you is a natural thing for me
And I could never let you go, no matter what goes on,
'Cause I love you more than ever now that the past is gone.
Suggest correction
Give kudos to tab author, rate the tab!
1 2 3 4 5
comments
print report bad tab
guest
You may want to rate the tab now too:
select rating
Wanna post a correction for this tab? Suggest correction