Oops, an error
Loading. Please wait.

What Good Am I Tab

2,886 views 16 this week
no commentswrite comment
1 2 3 4 5
excellent!
x 4
add to favorites
launch autoscroll
font size
0
reset
how to read this tab
guitar tuner
Tab Pro tools
  • play this tab
  • loop segment
  • change instrument
  • show fretboard
  • metronome
×
Best way to learn
"What Good Am I"
Autoscroll
slow
fast
+/-
esc
set tempo
stop
Contributor
---------------------------------------------------------------------------
                What Good Am I? ? Bob Dylan
---------------------------------------------------------------------------
Tabbed by: maguri
Tuning: Standard

What Good Am I?
(Dylan)
From: "Oh Mercy" (1989)

---------------------------------------------------------------------------
Intro
          A        E       A        E          A    E
e|----------0-----|--------------0-|------------0--|--0-----------|
B|----------------|--------2-0-2-0-|---------------|--------------|
G|--------2---2-1-|--------2-2-2---|-----------2-2-|1-------------|
D|--------2---2-2-|----------------|-----------2---|2-------------|
A|--------0-------|--------0-------|-----------0---|--------------|
E|----------------|0---------------|0--------------|0-------------|

Lick
  E          A    E 
e|------------0--|-(0)----------|
B|---------------|--------------|
G|-----------2-2-|1-------------|
D|-----------2---|2-------------|
A|-----------0---|--------------|
E|0--------------|0-------------|

---------------------------------------------------------------------------

INTRO
| - A | E  A | E A | E |

VERSE
E                 A                E       A  E
What good am I if I'm like all the rest   (lick)
      E                     A              E        A  E
If I just turn away, when I see how you're dressed (lick)
     C#m                                 G#m
If I shut myself off so I can't hear you cry
A    E    A  E     A  E
What good am I?   (lick)


VERSE
E                   A              E       A  E
What good am I if I know and don't do     (lick)
      E                      A                  E      A  E
If I see and don't say, if I look right through you   (lick)
     C#m                               G#m
If I turn a deaf ear to the thunderin' sky
A    E    A  E     A  E
What good am I?   (lick)


VERSE
E                    A          E      A  E
What good am I while you softly weep  (lick)
      E                        A           E       A  E
And I hear in my head what you say in your sleep  (lick)
      C#m                                          G#m
And I freeze in the moment like the rest who don't try
A    E    A  E     A  E
What good am I?   (lick)


MIDDLE 8
     C#m
What good am I then to others and me
        C#m                      G#m
If I've had every chance and yet still fail to see
   C#m
If my hands are tied must I not wonder within
    C#m                   G#m               F#m
Who tied them and why and where must I have been?


VERSE
E                   A           E       A  E
What good am I if I say foolish things (lick)
      E                    A           E        A  E
And I laugh in the face of what sorrow brings  (lick)
      C#m                                  G#m
And I just turn my back while you silently die 
A    E    A  E     A  E
What good am I?   (lick)


CODA / SOLO
| E | [2/4] A |[4/4] E A| E |
| E | [2/4] A |[4/4] E A| E |
| C#m |[2/4] C#m |[4/4] G#m | G#m |
| A E | [2/4] A |  E    A | E    A | E   A | E    A | E    A | E
                       (lick)   (lick)   lick)   (lick)   (lick)
comments
print report bad tab
I want to post or [tab]
guest
You may want to rate the tab now too:
select rating
Please do not post tabs as comments. Select "correction" instead!