Oops, an error
Loading. Please wait.

Dur Och Moll Omvartannat chords

58 views 1 this week
no commentswrite comment
1 2 3 4 5
3 more votes to show rating
add to favorites
×
Save as Personal and add changes to this tab that will be seen only by you. Learn more ›
×
You can save this tab as Personal to edit and correct it or add notes. All changes will be seen only by you. Learn more »
launch autoscroll
font size
0
reset
transpose
0
reset
simplify chords
display chords
guitar tuner
edit
Autoscroll
slow
fast
+/-
esc
set tempo
stop
Author
Unregistered
Strumming
There is no strumming pattern for this song yet. and get +5 IQ
     Bb7   C     F      Gm     F#m     B      E      Bb      D#      Fm
E----3-----3-----1------3------2-------2------0------1-------3-------1-----|
B----3-----5-----1------3------2-------4------0------3-------4-------1-----|
G----3-----5-----2------3------2-------4------1------3-------3-------1-----|
D----3-----5-----3------5------4-------4------2------3-------1-------3-----|
A----5-----3-----3------5------4-------2------2------1-------x-------3-----|
E----6-----x-----1------3------2-------x------x------x-------x-------1-----|


[Intro]

Bb7 C F Gm C F Bb7 C F

F#m B E
Just som man tror allt har ordnat sig
A B E
Vill man vara gladare
Gm C F
Just som man tror allt har ordnat sig
Bb C F
Vill man vara gladare
D# Bb Fm Bb7
En enkel melodi omvartannat moll och dur

syntljudet
E|-----9---12-----10----------------------|
B|----------------------------------------|
G|-------------------------10-------------|
D|----------------------------------------|
A|----------------------------------------|
E|----------------------------------------|

D# Bb Fm Bb7
Kan mer än ord få fram någonting mellan skam och tur

F#m B E
Just som man tror allt har ordnat sig
A B E
Vill man vara gladare
Gm C F
Just som man tror allt har ordnat sig
Bb C F
Vill man vara gladare

F#m (här gäller det att nynna sig fram!)

B E A B E Bb7 C F Bb C F
C G C G

            
            
Suggest correction
Creating personal tab
Creating personal tab
You can edit any tab online and save it as your Personal.

You can edit, replace or remove any tab part or add personal notes – all changes will be seen only by you.

Personal tabs can be accessed anytime from any device, even offline.
Learn more »
Give kudos to tab author, rate the tab!
1 2 3 4 5
comments
print report bad tab
guest
Wanna post a correction for this tab? Suggest correction