Oops, an error
Loading. Please wait.

Counting Bass Tab

4 views 1 this week
no commentswrite comment
1 2 3 4 5
3 more votes to show rating
add to favorites
launch autoscroll
font size
0
reset
guitar tuner
Autoscroll
slow
fast
+/-
esc
set tempo
stop
Help us to improve Ultimate-Guitar.com Take our survey!
×
Author
Difficulty
novice
Tabbed by: 6METAL6BASSIST6
E-mail: petergriffinav@gmail.com

Tuning: EADG

G|------------------------------------------------|
D|------------------------------------------------|
A|------------------------------------------------|
E|------------------------------------------------|

G|------------------------------------------------------------------------------------------------|
D|6-----------6-----------6-----------6-----------5-----------5-----------5-----------5-----------|
A|------------------------------------------------------------------------------------------------|
E|------------------------------------------------------------------------------------------------|

G|------------------------------------------------------------------------------------------------|
D|4-----------4-----------4-----------4-----------------------4-----------6-----------6-----------|
A|------------------------------------------------2-----------------------------------------------|
E|------------------------------------------------------------------------------------------------|

G|------------------------|
D|6-----------6-----------|
A|------------------------|
E|------------------------|

0:23

G|------------------------------------------------------------------------------------------------|
D|6-----------6-----------6-----------6-----------5-----------5-----------5-----------5-----------|
A|------------------------------------------------------------------------------------------------|
E|------------------------------------------------------------------------------------------------|

G|------------------------------------------------------------------------------------------------|
D|4-----------4-----------4-----------4-----------------------4-----------6-----------6-----------|
A|------------------------------------------------2-----------------------------------------------|
E|------------------------------------------------------------------------------------------------|

G|------------------------|
D|6-----------6-----------|
A|------------------------|
E|------------------------|

0:41

G|------------------------------------------------------------------------------------------------|
D|6-----------6-----------6-----------6-----------5-----------5-----------5-----------5-----------|
A|------------------------------------------------------------------------------------------------|
E|------------------------------------------------------------------------------------------------|

G|------------------------------------------------------------------------------------------------|
D|4-----------4-----------4-----------4-----------------------4-----------6-----------6-----------|
A|------------------------------------------------2-----------------------------------------------|
E|------------------------------------------------------------------------------------------------|

G|------------------------|
D|6-----------6-----------|
A|------------------------|
E|------------------------|

0:59

G|------------------------------------------------------------------------------------------------|
D|6-----------6-----------6-----------6-----------5-----------5-----------5-----------5-----------|
A|------------------------------------------------------------------------------------------------|
E|------------------------------------------------------------------------------------------------|

G|------------------------------------------------------------------------------------------------|
D|4-----------4-----------4-----------4-----------------------------------------------------------|
A|------------------------------------------------2-----------2-----------2-----------2-----------|
E|------------------------------------------------------------------------------------------------|

G|------------------------------------------------------------------------|
D|------------------------6-----------------------6-----------------------|
A|2-----------2-----------------------7-----------------------7-----------|
E|------------------------------------------------------------------------|

1:21

G|------------------------------------------------------------------------------------------------|
D|6-------6---6-----------6-------6---6-----------5-------5---5-----------5-------5---5-----------|
A|------------------------------------------------------------------------------------------------|
E|------------------------------------------------------------------------------------------------|

G|------------------------------------------------------------------------------------|
D|4-------4---4-----------4-------4---4-------------------------------------------4---|
A|------------------------------------------------2-------2---2-----------2-----------|
E|------------------------------------------------------------------------------------|

1:35

G|------------------------------------------------------------------------------------------------|
D|6-------6---6-----------6-------6---6-----------5-------5---5-----------5-------5---5-----------|
A|------------------------------------------------------------------------------------------------|
E|------------------------------------------------------------------------------------------------|

G|------------------------------------------------------------------------------------------------|
D|4-------4---4-----------4-------4---4-----------------------------------------------------------|
A|------------------------------------------------2-------2---2-----------2-------2---2-----------|
E|------------------------------------------------------------------------------------------------|

G|------------------------|
D|--------------------4---|
A|2-------2---2-----------|
E|------------------------|

1:53

G|------------------------------------------------------------------------------------------------|
D|6-------6---6-----------6-------6---6-----------5-------5---5-----------5-------5---5-----------|
A|------------------------------------------------------------------------------------------------|
E|------------------------------------------------------------------------------------------------|

G|------------------------------------------------------------------------------------------------|
D|4-------4---4-----------4-------4---4-----------------------------------------------------------|
A|------------------------------------------------2-------2---2-----------2-------2---2-----------|
E|------------------------------------------------------------------------------------------------|

G|------------------------------------------------------------------------------------------------|
D|--------------------------------------------4---6-------6---6-----------6-------6---6-----------|
A|2-------2---2-----------2-------2---2-----------------------------------------------------------|
E|------------------------------------------------------------------------------------------------|

2:16

G|------------------------------------------------------------------------------------------------|
D|6-----------6-----------6-----------6-----------5-----------5-----------5-----------5-----------|
A|------------------------------------------------------------------------------------------------|
E|------------------------------------------------------------------------------------------------|

G|------------------------------------4-----------------------------------------------------------|
D|4-----------4-----------------------------------6-----------6-----------6-----------6-----------|
A|------------------------2-----------------------------------------------------------------------|
E|------------------------------------------------------------------------------------------------|

2:32

G|------------------------------------------------------------------------------------------------|
D|6-----------6-----------6-----------6-----------5-----------5-----------5-----------5-----------|
A|------------------------------------------------------------------------------------------------|
E|------------------------------------------------------------------------------------------------|

G|------------------------------------------------------------------------------------------------|
D|4-----------4-----------4-------4---4-------4-----------------------------------------------4---|
A|------------------------------------------------2-------2---2-------2---2-------2---2-----------|
E|------------------------------------------------------------------------------------------------|

G|------------------------------------------------|
D|6-------6---6-----------2-----------------------|
A|--------------------2---------------------------|
E|------------------------------------------------|
Suggest correction
Give kudos to tab author, rate the tab!
1 2 3 4 5
comments
print report bad tab
guest
You may want to rate the tab now too:
select rating
Wanna post a correction for this tab? Suggest correction