Oops, an error
Loading. Please wait.

Eleanor bass

25 views 1 this week
no commentswrite comment
1 2 3 4 5
3 more votes to show rating
add to favorites
×
Save as Personal and add changes to this tab that will be seen only by you. Learn more ›
×
You can save this tab as Personal to edit and correct it or add notes. All changes will be seen only by you. Learn more »
launch autoscroll
font size
0
reset
guitar tuner
edit
Autoscroll
slow
fast
+/-
esc
set tempo
stop
Author
Difficulty
Tabbed by: 6METAL6BASSIST6
E-mail: petergriffinav@gmail.com

Tuning: EADG

0:12

G|----------------------------------------------------------------|
D|----------------------------------------------------------------|
A|------------------------------------------------5-------5-------|
E|3-----------3---3-------3-------3-----------3-------------------|

G|----------------------------------------------------------------|
D|----------------------------------------------------------------|
A|----------------------------------------------------------------|
E|3-----------3---3-------3-------3-----------3---3-------1-------|

G|----------------------------------------------------------------|
D|----------------------------------------------------------------|
A|----------------------------------------------------------------|
E|3-----------3---3-------1-------3-----------3---3-------1-------|

G|----------------------------------------------------------------|
D|----------------------------------------------------------------|
A|----------------------------------------------------------------|
E|3-----------3---3-------1-------3---3---3---3---3---3---3---3---|

0:28

G|----------------------------------------------------------------|
D|----------------------------------------------------------------|
A|----------------------------------------------------------------|
E|3-----------3---3-------3-------1-----------1---1-------1-------|

G|----------------------------------------------------------------|
D|----------------------------------------------------------------|
A|----------------------------------------------------------------|
E|3-----------3---3-------1-------3-----------3---3-------3-------|

G|----------------------------|
D|----------------------------|
A|------------------------5---|
E|1-----------1---3-----------|

0:38

G|----------------------------------------------------------------|
D|----------------------------------------------------------------| x2
A|----------------------------------------------------------------|
E|3-----------3---3-------3-------1-----------1---1-------1-------|

G|----------------------------------------------------------------|
D|----------------------------------------------------------------|
A|----------------------------------------------------------------|
E|3-----------3---3-------3-------1-----------1---3-------3-------|

0:50

G|----------------------------------------------------------------|
D|----------------------------------------------------------------| x2
A|--------------------------------3-----------3---3---3-------3---|
E|5-----------5---5---5-------5-----------------------------------|

G|----------------------------------------------------------------|
D|----------------------------------------------------------------|
A|------------------------------------------------2-------4-------|
E|5-----------5---5---5-------5---5-----------5-------------------|

1:02

G|----------------------------------------------------------------|
D|----------------------------------------------------------------| x3
A|5-------5-------5---5-------5---7-------7-------7---7-------7---|
E|----------------------------------------------------------------|

G|----------------------------------------------------------------|
D|----------------------------------------------------------------|
A|5-------5-------5---5-------5-----------------------------------|
E|--------------------------------3-------3-------3---3---3---3---|

1:17

G|----------------------------------------------------------------|
D|----------------------------------------------------------------|
A|----------------------------------------------------------------|
E|3-----------3---3-----------3---3-----------3---3-----------3---|

G|----------------------------------------------------------------|
D|----------------------------------------------------------------|
A|----------------------------------------------------------------|
E|3-----------3---3-----------3---3-----------3---3-------1-------|

G|----------------------------------------------------------------|
D|----------------------------------------------------------------|
A|----------------------------------------------------------------|
E|3-----------3---3-------1-------3---3---3---3---3---3---3---3---|

1:28

G|----------------------------------------------------------------|
D|----------------------------------------------------------------|
A|----------------------------------------------------------------|
E|3-----------3---3-------3-------1-----------1---1-------1-------|

G|----------------------------------------------------------------|
D|----------------------------------------------------------------|
A|----------------------------------------------------------------|
E|3-----------3---1-------1-------3-----------3---3-------3-------|

G|----------------------------|
D|----------------------------|
A|------------------------5---|
E|1-----------1---3-----------|

1:39

G|----------------------------------------------------------------|
D|----------------------------------------------------------------| x2
A|----------------------------------------------------------------|
E|3-----------3---3-------3-------1-----------1---1-------1-------|

G|----------------------------------------------------------------|
D|----------------------------------------------------------------|
A|----------------------------------------------------------------|
E|3-----------3---3-------3-------1-----------1---3-------3-------|

1:51

G|----------------------------------------------------------------|
D|----------------------------------------------------------------|
A|--------------------------------3---------------3---3-------3---|
E|5-----------5---5---5-------5-----------------------------------|

G|----------------------------------------------------------------|
D|----------------------------------------------------------------|
A|--------------------------------3-----------3---3---3-------3---|
E|5-----------5---5---5-------5-----------------------------------|

G|----------------------------------------------------------------|
D|----------------------------------------------------------------|
A|------------------------------------------------2-------4-------|
E|5-----------5---5---5-------5---5-----------5-------------------|

2:02

G|----------------------------------------------------------------|
D|----------------------------------------------------------------| x3
A|5-------5-------5---5-------5---7-------7-------7---7-------7---|
E|----------------------------------------------------------------|

G|----------------------------------------------------------------|
D|----------------------------------------------------------------|
A|5-------5-------5---5-------5-----------------------------------|
E|--------------------------------3---3---3---3---3---3---3---3---|

2:17

G|----------------------------------------------------------------|
D|----------------------------------------------------------------|
A|----------------------------------------------------------------|
E|3-----------3---3-----------3---3-----------3---3-----------3---|

G|----------------------------------------------------------------|
D|----------------------------------------------------------------|
A|----------------------------------------------------------------|
E|3-----------3---3-----------3---3-----------3---3-------1-------|

G|----------------------------------------------------------------|
D|----------------------------------------------------------------|
A|----------------------------------------------------------------|
E|3-----------3---3-------1-------3---3---3---3---3---3---3---3---|

2:30

G|----------------------------------------------------------------|
D|----------------------------------------------------------------|
A|----------------------------------------------------------------|
E|3-----------3---3-------3-------1-----------1---1-------1-------|

G|----------------------------------------------------------------|
D|----------------------------------------------------------------|
A|----------------------------------------------------------------|
E|3-----------3---3-------1-------3-----------3---3-------3-------|

G|----------------------------|
D|----------------------------|
A|------------------------5---|
E|1-----------1---3-----------|

2:39

G|----------------------------------------------------------------|
D|----------------------------------------------------------------| x2
A|----------------------------------------------------------------|
E|3-----------3---3-------3-------1-----------1---1-------1-------|

G|----------------------------------------------------------------|
D|----------------------------------------------------------------|
A|----------------------------------------------------------------|
E|3-----------3---3-------3-------1-----------1---3-------3-------|

2:51

G|----------------------------------------------------------------|
D|----------------------------------------------------------------| x3
A|5-------5-------5---5-------5---7-------7-------7---7-------7---|
E|----------------------------------------------------------------|

G|----------------------------------------------------------------|
D|----------------------------------------------------------------|
A|5-------5-------5---5-------5-----------------------------------|
E|--------------------------------3---3---3---3---3---3---3---3---|

3:07

G|----------------------------------------------------------------|
D|----------------------------------------------------------------|
A|----------------------------------------------------------------|
E|3---------------------------------------------------------------|

G|----------------------------------------------------------------|
D|----------------------------------------------------------------|
A|----------------------------------------------------------------|
E|------------------------------------------------------------3---|

G|----------------------------------------------------------------|
D|----------------------------------------------------------------|
A|----------------------------------------------------------------|
E|----------------------------------------------------------------|

G|----------------------------------------------------------------|
D|----------------------------------------------------------------|
A|----------------------------------------------------------------|
E|--------------------------------------------------------------3-|

G|----------------------------------------------------------------|
D|----------------------------------------------------------------|
A|----------------------------------------------------------------|
E|----------------------------------------------------------------|

G|----------------------------------------------------------------|
D|----------------------------------------------------------------| fades out here.
A|----------------------------------------------------------------|
E|------------------------------------------------------------3---|

            
            
Suggest correction
Creating personal tab
Creating personal tab
You can edit any tab online and save it as your Personal.

You can edit, replace or remove any tab part or add personal notes – all changes will be seen only by you.

Personal tabs can be accessed anytime from any device, even offline.
Learn more »
Give kudos to tab author, rate the tab!
1 2 3 4 5
comments
print report bad tab
guest
You may want to rate the tab now too:
select rating
Wanna post a correction for this tab? Suggest correction