Oops, an error
Loading. Please wait.

Elusive Butterfly bass

22 views 1 this week
no commentswrite comment
1 2 3 4 5
3 more votes to show rating
add to favorites
×
Save as Personal and add changes to this tab that will be seen only by you. Learn more ›
×
You can save this tab as Personal to edit and correct it or add notes. All changes will be seen only by you. Learn more »
launch autoscroll
font size
0
reset
guitar tuner
edit
Autoscroll
slow
fast
+/-
esc
set tempo
stop
Author
Elusive Butterfly
Single released by American singer Bob Lind. Reached number 5 in UK
Tab by bass50611. More or less as original. Very catchy tune...enjoy! 

Intro:
G|--------------------------------------------|
D|--------------------------------------------|
A|-6---6-6--6-6--6-6---6---6-6--6-6--6-6--6-6-|
E|--------------------------------------------|

Verse 1:
G|------------------------------------------------------------------------|
D|------------------------------------------------------------------------|
A|-6---6-6--6-6--6-6--6-------8---8--6---6-6--6-6--6--8---8-------8---8---|
E|----------------------6---6-------------------------------6---6-------6-|

G|--------------------|
D|--------------------|
A|---6--6-6--6-6--6-6-|
E|-6------------------|

Verse 2:
G|------------------------------------------------------------------------|
D|------------------------------------------------------------------------|
A|-6---6-6--6-6--6-6--6-------8---8--6---6-6--6-6--6--8---8-------8---8---|
E|----------------------6---6-------------------------------6---6-------6-|

G|-----------------------|
D|-----------------------|
A|---6--6-6--6-6--6-6--6-|
E|-6---------------------|

Chorus:
G|-----------------------------------------------------------------------|
D|-----------------------------------------------------------------------|
A|-8---8-------6---6-6--6--8---8-------6---6-6--6--8---8------6---6-6--6-|
E|-------6---6-------------------6---6-------------------6---6-----------|

G|---------------------|
D|---------------------|
A|-8---8-------6---6-6-|
E|-------6---6---------|

Verse 3:
G|------------------------------------------------------------------------|
D|------------------------------------------------------------------------|
A|-6---6-6--6-6--6-6--6-------8---8--6---6-6--6-6--6--8---8-------8---8---|
E|----------------------6---6-------------------------------6---6-------6-|

G|--------------------|
D|--------------------|
A|---6--6-6--6-6--6-6-|
E|-6------------------|

Verse 4:
G|------------------------------------------------------------------------|
D|------------------------------------------------------------------------|
A|-6---6-6--6-6--6-6--6-------8---8--6---6-6--6-6--6--8---8-------8---8---|
E|----------------------6---6-------------------------------6---6-------6-|

G|-----------------------|
D|-----------------------|
A|---6--6-6--6-6--6-6--6-|
E|-6---------------------|

Chorus:
G|-----------------------------------------------------------------------|
D|-----------------------------------------------------------------------|
A|-8---8-------6---6-6--6--8---8-------6---6-6--6--8---8------6---6-6--6-|
E|-------6---6-------------------6---6-------------------6---6-----------|

G|---------------------|
D|---------------------|
A|-8---8-------6---6-6-|
E|-------6---6---------|

Interlude:                            (Play This Bit x2)
G|-------------------------------------------|
D|-------8---8-----------------8---8---------|
A|-8---8-------6---6-6---8---8-------6---6-6-|
E|-------------------------------------------|

Final Chorus:                              (End)
G|-------------------------------------------|
D|-------8---8-----------------8---8---------|
A|-8---8-------6---6-6---8---8-------6---6-6-|
E|-------------------------------------------|


You might wake up some mornin'
To the sound of something moving past your window in the wind
And if you're quick enough to rise
You'll catch a fleeting glimpse of someone's fading shadow
Out on the new horizon
You may see the floating motion of a distant pair of wings
And if the sleep has left your ears
You might hear footsteps running through an open meadow

Don't be concerned, it will not harm you
It's only me pursuing somethin' I'm not sure of
Across my dreams with nets of wonder
I chase the bright elusive butterfly of love

You might have heard my footsteps
Echo softly in the distance through the canyons of your mind
I might have even called your name
As I ran searching after something to believe in
You might have seen me runnin'
Through the long-abandoned ruins of the dreams you left behind
If you remember something there
That glided past you followed close by heavy breathin'

Don't be concerned, it will not harm you
It's only me pursuing somethin' I'm not sure of
Across my dreams with nets of wonder
I chase the bright elusive butterfly of love

Across my dreams with nets of wonder
I chase the bright elusive butterfly of love

            
            
Suggest correction
Creating personal tab
Creating personal tab
You can edit any tab online and save it as your Personal.

You can edit, replace or remove any tab part or add personal notes – all changes will be seen only by you.

Personal tabs can be accessed anytime from any device, even offline.
Learn more »
Give kudos to tab author, rate the tab!
1 2 3 4 5
comments
print report bad tab
guest
You may want to rate the tab now too:
select rating
Wanna post a correction for this tab? Suggest correction