Oops, an error
Loading. Please wait.

Mister Zero Bass Tab

4 views 1 this week
no commentswrite comment
1 2 3 4 5
3 more votes to show rating
add to favorites
launch autoscroll
font size
0
reset
guitar tuner
Autoscroll
slow
fast
+/-
esc
set tempo
stop
Help us to improve Ultimate-Guitar.com Take our survey!
×
Author
Difficulty
novice
Tabbed by: 6METAL6BASSIST6
E-mail: petergriffinav@gmail.com

Tuning: EADG

G|------------------------|
D|------------------------|
A|------------------------|
E|5-------5---5-------5---|

G|------------------------------------------------------------------------------------------------|
D|------------------------------------------------5-------5---3-------3---2-------2---------------|
A|5-------5---5-------5---5---------------------------------------------------------------2---4---|
E|------------------------------------------------------------------------------------5-----------|

0:12

G|------------------------------------------------------------------------------------------------|
D|------------------------------------------------5-------5---3-------3---------------------------|
A|5-------5---5-------5---5-------5---5-------5---------------------------6-------6---5-------5---|
E|------------------------------------------------------------------------------------------------|

G|------------------------------------------------------------------------------------------------|
D|5-------5---3-------3---------------------------------------------------------------------------|
A|------------------------6-------6---5-------5---6-------6---5-------5---6-------6---5-------5---|
E|------------------------------------------------------------------------------------------------|

0:30

G|------------------------------------------------------------------------------------------------|
D|5-------5---3-------3---------------------------5-------5---3-------3---------------------------|
A|------------------------6-------6---5-------5---------------------------6-------6---5-------5---|
E|------------------------------------------------------------------------------------------------|

G|-------------------------------------------------|
D|-------------------------------------------------|
A|6-------6---5-------5---6-------6---5-------5----|
E|-------------------------------------------------|

0:43

G|------------------------------------------------------------------------------------------------|
D|5-------5---3-------3---------------------------------------------------------------------------|
A|------------------------6-------6---5-------5---6-------6---5-------5---6-------6---5-------5---|
E|------------------------------------------------------------------------------------------------|

G|------------------------------------------------------------------------------------|
D|5-------5---3-------3-----------------------------------------------------------7---|
A|------------------------6-------6---5-------5---6-------6---5-------5---5-----------|
E|------------------------------------------------------------------------------------|

G|------------------------------------------------|
D|5-------5---3-------3---2-------2---------------|
A|----------------------------------------2---4---|
E|------------------------------------5-----------|

1:04

G|------------------------------------------------------------------------------------------------|
D|------------------------------------------------5-------5---3-------3---------------------------|
A|5-------5---5-------5---5-------5---5-------5---------------------------6-------6---5-------5---|
E|------------------------------------------------------------------------------------------------|

G|------------------------------------------------------------------------------------------------|
D|5-------5---3-------3---------------------------------------------------------------------------|
A|------------------------6-------6---5-------5---6-------6---5-------5---6-------6---5-------5---|
E|------------------------------------------------------------------------------------------------|

1:22

G|------------------------------------------------------------------------------------------------|
D|5-------5---3-------3---------------------------5-------5---3-------3---------------------------|
A|------------------------6-------6---5-------5---------------------------6-------6---5-------5---|
E|------------------------------------------------------------------------------------------------|

G|-------------------------------------------------|
D|-------------------------------------------------|
A|6-------6---5-------5---6-------6---5-------5----|
E|-------------------------------------------------|

1:35

G|------------------------------------------------------------------------------------------------|
D|5-------5---3-------3---------------------------------------------------------------------------|
A|------------------------6-------6---5-------5---6-------6---5-------5---6-------6---5-------5---|
E|------------------------------------------------------------------------------------------------|

G|------------------------------------------------------------------------------------|
D|5-------5---3-------3-----------------------------------------------------------7---|
A|------------------------6-------6---5-------5---6-------6---5-------5---5-----------|
E|------------------------------------------------------------------------------------|

G|------------------------------------------------|
D|5-------5---3-------3---2-------2---------------|
A|----------------------------------------2---4---|
E|------------------------------------5-----------|

1:56

G|------------------------------------------------------------------------------------------------|
D|------------------------------------------------5-------5---3-------3---------------------------|
A|5-------5---5-------5---5-------5---5-------5---------------------------6-------6---5-------5---|
E|------------------------------------------------------------------------------------------------|

G|------------------------------------------------------------------------------------------------|
D|5-------5---3-------3---------------------------------------------------------------------------|
A|------------------------6-------6---5-------5---6-------6---5-------5---6-------6---5-------5---|
E|------------------------------------------------------------------------------------------------|

2:13

G|------------------------------------------------------------------------------------------------|
D|5-------5---3-------3---------------------------5-------5---3-------3---------------------------|
A|------------------------6-------6---5-------5---------------------------6-------6---5-------5---|
E|------------------------------------------------------------------------------------------------|

G|-------------------------------------------------|
D|-------------------------------------------------|
A|6-------6---5-------5---6-------6---5-------5----|
E|-------------------------------------------------|

2:26

G|------------------------------------------------------------------------------------------------|
D|5-------5---3-------3---------------------------------------------------------------------------|
A|------------------------6-------6---5-------5---6-------6---5-------5---6-------6---5-------5---|
E|------------------------------------------------------------------------------------------------|

G|------------------------------------------------------------------------------------|
D|5-------5---3-------3-----------------------------------------------------------7---|
A|------------------------6-------6---5-------5---6-------6---5-------5---5-----------|
E|------------------------------------------------------------------------------------|

G|------------------------------------------------|
D|5-------5---3-------3---2-------2---------------|
A|----------------------------------------2---4---|
E|------------------------------------5-----------|

2:47

G|------------------------------------------------------------------------------------------------|
D|------------------------------------------------5-------5---3-------3---------------------------|
A|5-------5---5-------5---5-------5---5-------5---------------------------6-------6---5-------5---|
E|------------------------------------------------------------------------------------------------|

G|------------------------------------------------------------------------------------------------|
D|5-------5---3-------3---------------------------------------------------------------------------|
A|------------------------6-------6---5-------5---6-------6---5-------5---6-------6---5-------5---|
E|------------------------------------------------------------------------------------------------|

3:04

G|------------------------------------------------------------------------------------------------|
D|5-------5---3-------3---------------------------5-------5---3-------3---------------------------|
A|------------------------6-------6---5-------5---------------------------6-------6---5-------5---|
E|------------------------------------------------------------------------------------------------|

G|-------------------------------------------------|
D|-------------------------------------------------|
A|6-------6---5-------5---6-------6---5-------5----|
E|-------------------------------------------------|

3:17

G|------------------------------------------------------------------------------------------------|
D|5-------5---3-------3---------------------------------------------------------------------------|
A|------------------------6-------6---5-------5---6-------6---5-------5---6-------6---5-------5---|
E|------------------------------------------------------------------------------------------------|

G|--------------------------------------------------------------------------------------------------------|
D|5-------5---3-------3-----------------------------------------------------------7-----------7-----------|
A|------------------------6-------6---5-------5---5-------5---6-------6---5-----------5-----------5-------|
E|--------------------------------------------------------------------------------------------------------|

G|------------------------------------------------|
D|7---5-------5---3-------3---2-------------------|
A|----------------------------------------5-------|
E|------------------------------------5-----------|
Suggest correction
Give kudos to tab author, rate the tab!
1 2 3 4 5
comments
print report bad tab
guest
You may want to rate the tab now too:
select rating
Wanna post a correction for this tab? Suggest correction