Oops, an error
Loading. Please wait.

Unlock The Door bass

49 views 1 this week
no commentswrite comment
1 2 3 4 5
3 more votes to show rating
add to favorites
×
Save as Personal and add changes to this tab that will be seen only by you. Learn more ›
×
You can save this tab as Personal to edit and correct it or add notes. All changes will be seen only by you. Learn more »
launch autoscroll
font size
0
reset
guitar tuner
edit
Autoscroll
slow
fast
+/-
esc
set tempo
stop
Author
Difficulty
Tabbed by: 6METAL6BASSIST6
E-mail: petergriffinav@gmail.com

Tuning: EADG

G|----------------------------------------------------------------|
D|5---------------5---------------7---------------7---------------| x2
A|------------5---------------5---------------7---------------7---|
E|----------------------------------------------------------------|

0:11

G|----------------------------------------------------------------|
D|5---------------7---------------5---------------7---------------|
A|------------5---------------7---------------5---------------7---|
E|----------------------------------------------------------------|

G|----------------------------------------------------------------|
D|7---------------5---------------7---------------5---------------|
A|------------7---------------5---------------7---------------5---|
E|----------------------------------------------------------------|

G|--------------------------------|
D|7---------------7---------------|
A|------------7---------------7-\-|
E|--------------------------------|

0:24

G|----------------------------------------------------------------|
D|----------------------------------------------------------------|
A|3-----3-3-----------------------3-----3-3-----------------------|
E|----------------5-----5-5-----------------------5-----5-5-------|

G|----------------------------------------------------------------|
D|----------------------------------------------------------------|
A|----------------3-----3-3-----------------------3-----3-3-------|
E|5-----5-5-----------------------5-----5-5-----------------------|

G|--------------------------------|
D|--------------------------------|
A|--------------------------------|
E|5-----5-5-------5-----5-5-------|

0:37

G|----------------------------------------------------------------|
D|5---------------7---------------5---------------7---------------|
A|------------5---------------7---------------5---------------7---|
E|----------------------------------------------------------------|

G|----------------------------------------------------------------|
D|7---------------5---------------7---------------5---------------|
A|------------7---------------5---------------7---------------5---|
E|----------------------------------------------------------------|

G|--------------------------------|
D|7---------------7---------------|
A|------------7---------------7-\-|
E|--------------------------------|

0:50

G|----------------------------------------------------------------|
D|----------------------------------------------------------------|
A|3-----3-3-------3-----3-3---------------------------------------|
E|--------------------------------5-----5-5-------5-----5-5-------|

G|----------------------------------------------------------------|
D|----------------------------------------------------------------|
A|3-----3-3-------3-----3-3-------5-----5-5-------5-----5-5---5---|
E|----------------------------------------------------------------|

G|----------------------------------------------------------------|
D|5---------------5---------------7---------------7---------------|
A|------------5---------------5---------------7---------------7---|
E|----------------------------------------------------------------|

1:06

G|----------------------------------------------------------------|
D|5---------------7---------------5---------------7---------------|
A|------------5---------------7---------------5---------------7---|
E|----------------------------------------------------------------|

G|----------------------------------------------------------------|
D|7---------------5---------------7---------------5---------------|
A|------------7---------------5---------------7---------------5---|
E|----------------------------------------------------------------|

G|--------------------------------|
D|7---------------7---------------|
A|------------7---------------7-\-|
E|--------------------------------|

1:19

G|----------------------------------------------------------------|
D|----------------------------------------------------------------|
A|3-----3-3-----------------------3-----3-3-----------------------|
E|----------------5-----5-5-----------------------5-----5-5-------|

G|----------------------------------------------------------------|
D|----------------------------------------------------------------|
A|----------------3-----3-3-----------------------3-----3-3-------|
E|5-----5-5-----------------------5-----5-5-----------------------|

G|--------------------------------|
D|--------------------------------|
A|----------------------------5---|
E|5-----5-5-------5-----5-5-------|

1:33

G|----------------------------------------------------------------|
D|5---------------7---------------5---------------7---------------|
A|------------5---------------7---------------5---------------7---|
E|----------------------------------------------------------------|

G|----------------------------------------------------------------|
D|7---------------5---------------7---------------5---------------|
A|------------7---------------5---------------7---------------5---|
E|----------------------------------------------------------------|

G|--------------------------------|
D|7---------------7---------------|
A|------------7---------------7-\-|
E|--------------------------------|

1:45

G|----------------------------------------------------------------|
D|----------------------------------------------------------------|
A|3-----3-3-------3-----3-3---------------------------------------|
E|--------------------------------5-----5-5-------5-----5-5-------|

G|----------------------------------------------------------------|
D|----------------------------------------------------------------|
A|3-----3-3-------3-----3-3-------5-----5-5-------5-----5-5-------|
E|----------------------------------------------------------------|

G|----------------------------------------------------------------|
D|5---------------5---------------7---------------7---------------|
A|------------5---------------5---------------7-------------------|
E|----------------------------------------------------------------|

2:01

G|----------------------------------------------------------------|
D|5---------------7---------------5---------------7---------------|
A|------------5---------------7---------------5---------------7---|
E|----------------------------------------------------------------|

G|----------------------------------------------------------------|
D|7---------------5---------------7---------------5---------------|
A|----------------------------5---------------7---------------5---|
E|----------------------------------------------------------------|

G|--------------------------------|
D|7---------------7---------------|
A|------------7---------------7-\-|
E|--------------------------------|

2:14

G|----------------------------------------------------------------|
D|----------------------------------------------------------------|
A|3-----3-3-----------------------3-----3-3-----------------------|
E|----------------5-----5-5-----------------------5-----5-5-------|

G|----------------------------------------------------------------|
D|----------------------------------------------------------------|
A|----------------3-----3-3-----------------------3-----3-3-------|
E|5-----5-5-----------------------5-----5-5-----------------------|

G|--------------------------------|
D|--------------------------------|
A|--------------------------------|
E|5-----5-5-------5-----5-5-------|

2:28

G|----------------------------------------------------------------|
D|5---------------7---------------5---------------7---------------|
A|------------5---------------7---------------5---------------7---|
E|----------------------------------------------------------------|

G|----------------------------------------------------------------|
D|7---------------5---------------7---------------5---------------|
A|------------7---------------5---------------7---------------5---|
E|----------------------------------------------------------------|

G|--------------------------------|
D|7---------------7---------------|
A|------------7---------------7-\-|
E|--------------------------------|

2:41

G|----------------------------------------------------------------|
D|----------------------------------------------------------------|
A|3-----3-3-------3-----3-3---------------------------------------|
E|--------------------------------5-----5-5-------5-----5-5-------|

G|----------------------------------------------------------------|
D|----------------------------------------------------------------|
A|3-----3-3-------3-----3-3-------5-----5-5-------5-----5-5-------|
E|----------------------------------------------------------------|

G|----------------------------------------------------------------|
D|5---------------5---------------7---------------7---------------|
A|------------5---------------5---------------7---------------7---|
E|----------------------------------------------------------------|

2:58

G|----------------------------------------------------------------|
D|5---------------7---------------5---------------7---------------|
A|------------5---------------7---------------5---------------7---|
E|----------------------------------------------------------------|

G|----------------------------------------------------------------|
D|7---------------5---------------7---------------5---------------|
A|------------7---------------5---------------7---------------5---|
E|----------------------------------------------------------------|

G|--------------------------------|
D|7---------------7---------------|
A|----------------------------7-\-|
E|--------------------------------|

3:09

G|----------------------------------------------------------------|
D|----------------------------------------------------------------|
A|3-----3-------------------------3-----3-3-----------------------|
E|----------------5-----5-5-----------------------5-----5-5-------|

G|----------------------------------------------------------------|
D|----------------------------------------------------------------|
A|----------------3-----3-3-----------------------3-----3-3-------|
E|5-----5-5-----------------------5-----5-5-----------------------|

G|--------------------------------|
D|--------------------------------|
A|----------------------------5---|
E|5-----5-5-------5-----5-5-------|

3:23

G|----------------------------------------------------------------|
D|5---------------7---------------5---------------7---------------|
A|------------5---------------7---------------5---------------7---|
E|----------------------------------------------------------------|

G|----------------------------------------------------------------|
D|7---------------5---------------7---------------5---------------|
A|------------7---------------5---------------7---------------5---|
E|----------------------------------------------------------------|

G|--------------------------------|
D|7---------------7---------------|
A|------------7---------------7-\-|
E|--------------------------------|

3:36

G|----------------------------------------------------------------|
D|----------------------------------------------------------------|
A|3-----3-3-------3-----3-3---------------------------------------|
E|--------------------------------5-----5-5-------5-----5-5-------|

G|----------------------------------------------------------------|
D|----------------------------------------------------------------|
A|3-----3-3-------3-----3-3-------5-----5---------5-----5-5---5---|
E|----------------------------------------------------------------|

G|----------------------------------------------------------------|
D|5---------------5---------------7---------------7---------------| x3 to fadeout.
A|------------5---------------5---------------7---------------7---|
E|----------------------------------------------------------------|
Suggest correction
Creating personal tab
Creating personal tab
You can edit any tab online and save it as your Personal.

You can edit, replace or remove any tab part or add personal notes – all changes will be seen only by you.

Personal tabs can be accessed anytime from any device, even offline.
Learn more »
Give kudos to tab author, rate the tab!
1 2 3 4 5
comments
print report bad tab
guest
You may want to rate the tab now too:
select rating
Wanna post a correction for this tab? Suggest correction