Oops, an error
Loading. Please wait.

One Woman Man bass

28 views 3 this week
no commentswrite comment
1 2 3 4 5
3 more votes to show rating
add to favorites
×
Save as Personal and add changes to this tab that will be seen only by you. Learn more ›
×
You can save this tab as Personal to edit and correct it or add notes. All changes will be seen only by you. Learn more »
launch autoscroll
font size
0
reset
guitar tuner
edit
Autoscroll
slow
fast
+/-
esc
set tempo
stop
Author
Difficulty
Tabbed by: 6METAL6BASSIST6
E-mail: petergriffinav@gmail.com

Tuning: EADG

0:04

G|----------------------------------------------------------------|
D|5---------------------------------------------------------------|
A|----------------------------------------------------------------|
E|----------------------------------------------------------------|

G|----------------------------------------------------------------|
D|5-------------------------------5-------------------------------|
A|----------------------------------------------------------------|
E|----------------------------------------------------------------|

G|----------------------------------------------------------------|
D|5-------------------------------3---------------5---------------|
A|----------------------------------------3-----------------------|
E|----------------------------------------------------------------|

G|----------------------------------------------------------------|
D|5---------------5---------------5---------------5---------------|
A|----------------------------------------------------------------|
E|----------------------------------------------------------------|

G|----------------------------------------------------------------|
D|5---------------5---------------3---------------5---------------|
A|----------------------------------------3-----------------------|
E|----------------------------------------------------------------|

0:22

G|----------------------------------------------------------------|
D|5---------------5-----------------------------------------------|
A|--------5---------------5-------3---------------3-------3---4---|
E|----------------------------------------3-----------------------|

G|----------------------------------------------------------------|
D|--------------------------------5-----3-3---2-----2-2---1---0---|
A|5---------------5-----------------------------------------------|
E|--------5---------------5---------------------------------------|

G|----------------------------------------------------------------|
D|5-----------5---3-----------3---2-----------2---1-----------1---|
A|----------------------------------------------------------------|
E|----------------------------------------------------------------|

G|------------------------------------------------|
D|5---------------5-----------5---3---------------|
A|--------5---------------5---------------3-------|
E|------------------------------------------------|

G|----------------------------------------------------------------|
D|5---------------5---------------5-------5-------5---------------|
A|------------------------------------------------------------5---|
E|----------------------------------------------------------------|

0:39

G|----------------------------------------------------------------|
D|5---------------5---5-----------5---------------5---5-----------|
A|------------5---------------5---------------5---------------5---|
E|----------------------------------------------------------------|

G|----------------------------------------------------------------|
D|5---------------5---5-------5---3---------------5---------------|
A|------------5---------------------------3-------------------5---|
E|----------------------------------------------------------------|

G|----------------------------------------------------------------|
D|5---------------5---5-----------5---------------5---5-----------|
A|------------5---------------5---------------5---------------5---|
E|----------------------------------------------------------------|

G|------------------------------------------------|
D|5---5-----------5---5-------5---3---------------|
A|------------5---------------------------3-------|
E|------------------------------------------------|

G|----------------------------------------------------------------|
D|5---------------5---------------5---------------5---------------|
A|----------------------------------------------------------------|
E|----------------------------------------------------------------|

0:56

G|----------------------------------------------------------------|.
D|5-------------------------------5-------------------------------|.
A|----------------------------------------------------------------|.
E|----------------------------------------------------------------|.
                                                                   . x2
G|----------------------------------------------------------------|.
D|3-------------------------------5-------------------------------|.
A|----------------3-------------------------------------------5---|.
E|----------------------------------------------------------------|.

1:10

G|----------------------------------------------------------------|
D|5---------------5---------------------------------------2-------|
A|--------5---------------5---4---3---------------3---------------|
E|----------------------------------------3-----------------------|

G|----------------------------------------------------------------|
D|--------------------------------5-----3-3---2-----2-2---1---0---|
A|5---------------5-----------------------------------------------|
E|--------5---------------5---------------------------------------|

G|----------------------------------------------------------------|
D|5-----------5---3-----------3---2-----------2---1-----------1---|
A|----------------------------------------------------------------|
E|----------------------------------------------------------------|

G|------------------------------------------------|
D|5---------------5-------5-------3---------------|
A|--------5-------------------5-----------3-------|
E|------------------------------------------------|

G|----------------------------------------------------------------|
D|5---------------5-------------/-5---------------5---------------|
A|----------------------------------------------------5---7---5---|
E|----------------------------------------------------------------|

1:27

G|----------------------------------------------------------------|
D|5---------------5---------------5---------------5---------------|
A|------5-5-------------5-5-------------5-5-------------5-5---7---|
E|----------------------------------------------------------------|

G|----------------------------------------------------------------|
D|5---------------5---------------3---------------5---------------|
A|------5-5---------------5-------------3-3---------------5---7---|
E|----------------------------------------------------------------|

G|----------------------------------------------------------------|
D|5---------------5---------------5---------------5---------------|
A|--------5---------------5---------------5---------------5-------|
E|----------------------------------------------------------------|

G|------------------------------------------------|
D|5---------------5---------------3---------------|
A|------5-5-------------5-5---------------3-------|
E|------------------------------------------------|

G|----------------------------------------------------------------|
D|5-------------------------------5-------------------------------|
A|----------------------------------------------------5---7---5---|
E|----------------------------------------------------------------|

1:43

G|----------------------------------------------------------------|
D|5---------------5---------------------------------------2-------|
A|--------5---------------5-------3---------------3---------------|
E|----------------------------------------3-----------------------|

G|----------------------------------------------------------------|
D|--------------------------------5-----3-3---2-----2-2---1---0---|
A|5---------------5-----------------------------------------------|
E|--------5---------------5---------------------------------------|

G|----------------------------------------------------------------|
D|5-----------5---3---3-------3---2---2-------2---1---1-------1---|
A|----------------------------------------------------------------|
E|----------------------------------------------------------------|

G|------------------------------------------------|
D|5---------------5-----------5---3---------------|
A|--------5---------------5---------------3-------|
E|------------------------------------------------|

G|----------------------------------------------------------------|
D|5-----5-5---5-----5-5---5-------5-----5-5---5-------5-----------|
A|----------------------------5---------------------------7---5---|
E|----------------------------------------------------------------|

2:00

G|------------------------------------------------|
D|5---------------5-----------5---3---------------|
A|--------5---------------5---------------3-------|
E|------------------------------------------------|

G|----------------------------------------------------------------|
D|5-----5-5---5-------5---5-------5-----5-5---5---------------4---|
A|------------------------------------------------5---5---7-------|
E|----------------------------------------------------------------|

G|----------------------------------------------------------------|
D|5---------------5-5-------------5---------------5---------------|
A|--------5---------------5---------------5---------------5-------|
E|----------------------------------------------------------------|

G|----------------------------------------------------------------|
D|5-5-------------5-5-------------5-5-------------5-5-------------|
A|--------5---------------5---------------5---------------5-------|
E|----------------------------------------------------------------|

G|--------------------------------------------------------------------|
D|5---------------5-5-------------5---------------5---------------5---| fades out here.
A|--------5---------------5---------------5---------------5-----------|
E|--------------------------------------------------------------------|

            
            
Suggest correction
Creating personal tab
Creating personal tab
You can edit any tab online and save it as your Personal.

You can edit, replace or remove any tab part or add personal notes – all changes will be seen only by you.

Personal tabs can be accessed anytime from any device, even offline.
Learn more »
Give kudos to tab author, rate the tab!
1 2 3 4 5
comments
print report bad tab
guest
You may want to rate the tab now too:
select rating
Wanna post a correction for this tab? Suggest correction