Oops, an error
Loading. Please wait.

Africa Unite Bass Tab

version 1
version 1

Whole song

Interactive

10,699 views 21 this week
1 commentread comment
1 2 3 4 5
1 last vote to show rating
add to favorites
launch autoscroll
font size
0
reset
guitar tuner
×
Best way to learn
"Africa Unite"
Autoscroll
slow
fast
+/-
esc
set tempo
stop
              BOB MARLEY and THE WAILERS
                   AFRICA UNITE
             album:   SURVIVAL

   [RIFF 1]
G ||---------------------------------------------------------||
D ||---------------------------------------------------------||
A ||------------5-5-5-----7-7-7----7-5-----------------------||
E ||--3-3-3--------------------------------------------------||

                 "cause we're movin' ......."
G ||---------------------------------------------------------||
D ||---------------------------------------------------------||
A ||---3-3-3----5-5-5-----7-7-7------------------------------||     X2
E ||---------------------------------------------------------||

   [RIFF 2]
G ||----------------------------------------------------------||
D ||--------------------------------------O--7----------------||
A ||-----------2-3-----5-5-5----7-5------------7--5-----------||
E ||--3------3----------------------7----------------7--------||
Suggest correction
Give kudos to tab author, rate the tab!
1 2 3 4 5
comments
print report bad tab
1 comment total.
0 reply
mattydread 2,677 Nov 04, 2009 12:07 PM

Title - Africa Unite
Artist - Bob Marley & the Wailers
Album - Survival
Tabbed by - mattydread2@yahoo.com

This tab is correct, the only other version on UG is incorrect

intro X 2
G|------------------------------|
D|------------------------------|
A|-----555-77777-----555-777777-|
E|-333------------333-----------|

chorus
G|-------------------------------|----------------------|
D|-------------------------------|----------------------|
A|-----555-777777--333-555-77777-|-333-555-77777---7777-|
E|-333---------------------------|----------------------|

verse
G|-----------------------------|-------------------------------|
D|-----------------------------|-------------------------------|
A|----235-5-5---7-5------2-----|------23-5-5-5---7-5------2----|
E|-333--------------8---3-320--|-3---3---------------8---3-320-|

guest
You may want to rate the tab now too:
select rating
Wanna post a correction for this tab? Suggest correction