Oops, an error
Loading. Please wait.

Ambush In The Night Bass Tab

4,614 views 6 this week
no commentswrite comment
1 2 3 4 5
1 last vote to show rating
add to favorites
launch autoscroll
font size
0
reset
guitar tuner
Autoscroll
slow
fast
+/-
esc
set tempo
stop
Help us to improve Ultimate-Guitar.com Take our survey!
×
Author
Artist - Bob Marley & the Wailers
Title - Ambush in the Night
Album - Survival
Bass Tab

Tabbed by - mattydread2@yahoo.com

intro  A       B        G
G|---------------------------------------|
D|--4-57---------------------------------|
A|------5--------5-5------2-2------2-2---|
E|-------555----7---77---3---33---3---3--|


G|---------------------------------------|
D|--4-57---------------------------------|
A|------5--------5-5------2-2------2-2---|
E|-------5555---7---77---3---33---3---3--|


G|---------------------------------------|
D|--4-57---------------------------------|
A|------5--------5-5------2-2------2-2---|
E|-------5555---7---77---3---33---3---3--|


G|---------------------------------------|
D|--4-57---------------------------------|
A|------5--------5-5------2-2------2-2---|
E|-------5555---7---77---3---33---3---3--|

verse E                    A
G|-----------------------------------------|
D|--------79---------79--------------------|
A|--77--10--7--77--10--7-----7---7---7-----|
E|------------------------55--55--55--555--|

      E                    D                G
G|-----------------------------------------------------------|
D|--------79---------79--------------------------------------|
A|--77--10--7--77--10--7--55--55---55--555----553------553---|
E|---------------------------5---5----5----33----3--33----3--|

      E                     G                  A
G|---------------------------------------------------------------|
D|--------79---------79------------------------------------------|
A|--77--10--7--77--10--7-----55-3------55-3------77-5-----77-5---|
E|-------------------------33----3--33-----3--55-----5--55----5--|

chorus  B                  G         A
G|--------------------------------------------|
D|--------------------------------------------|
A|-------7-9--------7-9------55-2------77-4---|
E|--77-10---7--77-10---7--33-----3--55-----5--|


G|--------------------------------------------|
D|--------------------------------------------|
A|-------7-9--------7-9------55-2------77-4---|
E|--77-10---7--77-10---7--33-----3--55-----5--|


G|--------------------------------------------|
D|--------------------------------------------|
A|-------7-9--------7-9------55-2------77-4---|
E|--77-10---7--77-10---7--33-----3--55-----5--|


intro 2
G|---------------------------------------|
D|--4-57---------------------------------|
A|------5--------5-5------2-2------2-2---|
E|-------5555---7---77---3---33---3---3--|


G|---------------------------------------|
D|--4-57---------------------------------|
A|------5--------5-5------2-2------2-2---|
E|-------5555---7---77---3---33---3---3--|


G|---------------------------------------|
D|--4-57---------------------------------|
A|------5--------5-5------2-2------2-2---|
E|-------5555---7---77---3---33---3---3--|


G|---------------------------------------|
D|--4-57---------------------------------|
A|------5--------5-5------2-2------2-2---|
E|-------5555---7---77---3---33---3---3--|

verse 2 E                    A
G|-----------------------------------------|
D|--------79---------79--------------------|
A|--77--10--7--77--10--7-----7---7---7-----|
E|------------------------55--55--55--555--|

      E                    D                G
G|----------------------------------------------------------|
D|--------79---------79-------------------------------------|
A|--77--10--7--77--10--7--55--55---55--555----5---5---5-----|
E|---------------------------5---5----5----33--33--33--333--|

      E                     G                  A
G|-----------------------------------------------------------|
D|--------79---------79--------------------------------------|
A|--77--10--7--77--10--7------5---5---5--------7---7---7-----|
E|-------------------------33--33--33--333--55--55--55--555--|

chorus 2  B                G         A
G|--------------------------------------------|
D|--------------------------------------------|
A|-------7-9--------7-9------55-2------77-4---|
E|--77-10---7--77-10---7--33-----3--55-----5--|


G|--------------------------------------------|
D|--------------------------------------------|
A|-------7-9--------7-9------55-2------77-4---|
E|--77-10---7--77-10---7--33-----3--55-----5--|


G|--------------------------------------------|
D|--------------------------------------------|
A|-------7-9--------7-9------55-2------77-4---|
E|--77-10---7--77-10---7--33-----3--55-----5--|
                                             fade out
Suggest correction
Give kudos to tab author, rate the tab!
1 2 3 4 5
comments
print report bad tab
guest
You may want to rate the tab now too:
select rating
Wanna post a correction for this tab? Suggest correction