Oops, an error
Loading. Please wait.

Baby Weve Got A Date Bass Tab

2,530 views 3 this week
no commentswrite comment
1 2 3 4 5
please rate
add to favorites
launch autoscroll
font size
0
reset
guitar tuner
Autoscroll
slow
fast
+/-
esc
set tempo
stop
Help us to improve Ultimate-Guitar.com Take our survey!
×
Author
Difficulty
novice
Artist - Bob Marley & the Wailers
Title - Baby We Got a Date (Rock it Baby)
Album - Catch a Fire

Bass Tab

Tabbed by - mattydread2@yahoo.com

This is not easy to learn and takes some patience to get the riddim right
and to remember when the riffs come in, but one of Family Man's finest
for sure and definately worth learning if you're a fan.
I think it's pretty note perfect.
Please rate and comment.

intro
G|-----6-6-67---6----------6-6-6-------|
D|-7-7--------9--------7-7------9-6-7--|
A|-------------------------------------|
E|-------------------------------------|

G|-----6-6-67-4-6---------6-6-64------|
D|-7-7----------------7-7--------6-7--|
A|------------------------------------|
E|------------------------------------|


'baby baby we got a date' (play 4 times)
G|-------6-6-6-------------6-6-6------|
D|------------------------------------|
A|----4-7------5-4------4-7------7----|
E|--5-----------------5------------5--|


'rock it baby' (play 2 times)
G|---6-----6-----6----------------|
D|--------------------------------|
A|--7-----7-----7-----4--44--7----|
E|------5----5------57-5-------5--|


bridge
G|-----------------------------------------------------------------|
D|--------76---------------76----------99-------------99-----------|
A|----79----9---------7-9----9------7-9--------------0-------5--5--|
E|--9---------9-9---9----------9-9--------777-2-2--2------77---7---|

G|----------------------------------------------------------------|
D|--------76---------------76------76--99------------99-----------|
A|----79----9---------7-9----9-------9--------------0-------5--5--|
E|--9---------9-9---9---------------------777-2-2--2-----77---7---|


play 2 times
G|---6-----6-----6----------------|
D|--------------------------------|
A|--7-----7-----7-----4--44-------|
E|------5----5------57-5-----7-5--|


play 2 times
G|-------6-6-6-------------6-6-6------|
D|------------------------------------|
A|----4-7---------------4-7------7----|
E|--5-----------------5------------5--|


play 4 times
G|-------6-6-6-------------6-6-6------|
D|------------------------------------|
A|----4-7------5-4------4-7------7----|
E|--5-----------------5------------5--|


play 2 times
G|---6-----6-----6----------------|
D|--------------------------------|
A|--7-----7-----7-----4--44-------|
E|------5----5------57-5-----7-5--|


bridge
G|----------------------------------------------------------------|
D|--------76---------------76------76--99------------99-----------|
A|----79----9---------79-----9-------9--------------0-------5--5--|
E|--9---------9-9---9---------------------777-2-2--2-----77---7---|

G|----------------------------------------------------------------|
D|--------76---------------76------76--99------------99-----------|
A|----79----9---------79-----9-------9--------------0-------5--5--|
E|--9---------9-9---9---------------------777-2-2--2-----77---7---|


play 4 times
G|---6-----6-----6----------------|
D|--------------------------------|
A|--7-----7-----7-----4--44-------|
E|------5----5------57-5-----7-5--|


play out...
G|-------6-6-6-------6----6------|
D|-------------------------------|
A|----4-7------5-4--7----7--7----|
E|--5------------------5------5--|

G|---6-----6-----6----------------|
D|--------------------------------|
A|--7-----7-----7-----4--44-------|
E|------5----5------57-5-----7-5--|
Suggest correction
Give kudos to tab author, rate the tab!
1 2 3 4 5
comments
print report bad tab
guest
You may want to rate the tab now too:
select rating
Please do not post tabs as comments. Select "correction" instead!