Oops, an error
Loading. Please wait.

Bend Down Low Bass Tab

4,881 views 9 this week
1 commentread comment
1 2 3 4 5
please rate
add to favorites
launch autoscroll
font size
0
reset
guitar tuner
Autoscroll
slow
fast
+/-
esc
set tempo
stop
Help us to improve Ultimate-Guitar.com Take our survey!
×
              BOB MARLEY and THE WAILERS

                   BEND DOWN LOW

              album: NATTY DREAD


              INTRO  X2
G ||-------------------2--4--5--------------------------------|| 
D ||---2-5----O-5-3-5------------2------2-5---O-5-3---2-O-----|| 
A ||-3--------------------------------3--------------------3--|| 
E ||----------------------------------------------------------|| 

              
G ||-----------------2-----------------------------|| 
D ||----2-5--------4-------------------------------|| 
A ||--3------3---5---------------------------------|| 
E ||-----------------------------------------------|| 


corrections and stuff to:
c.duffy@ireland.com
Suggest correction
Give kudos to tab author, rate the tab!
1 2 3 4 5
comments
print report bad tab
1 comment total.
+1 reply
metalbasser 94 wrote on March 15 2010, 07:53 am

I suggest you play it that way:

G ||----------------2-5----------------------------||
D ||----2-5------3---------------------------------||
A ||--3--------------------------------------------||
E ||-----------------------------------------------||

guest
You may want to rate the tab now too:
select rating
Wanna post a correction for this tab? Suggest correction