Oops, an error
Loading. Please wait.

Buffalo Soldier Bass Tab

version 1
version 1

Whole song

Interactive

43,967 views 69 this week
3 commentsread comments
1 2 3 4 5
accurate
x 8
add to favorites
launch autoscroll
font size
0
reset
guitar tuner
Tab Pro tools
  • play this tab
  • loop segment
  • change instrument
  • show fretboard
  • metronome
Autoscroll
slow
fast
+/-
esc
set tempo
stop
                         BOB MARLEY and THE WAILERS

                              BUFFALO SOLDIER

                          album:  CONFRONTATION


 INTRO : Keep hitting 5 on E

        CHORUS
G ||--------------------------------------------------|| 
D ||-------------------44-2-----------4----4----------|| 
A ||------------------------4-O-----------------------|| 
E ||-555--55--555--55---------------O-------55--------||

       VERSE
G ||------------------------------------------------------|| 
D ||------------------------------------------------------|| 
A ||-5-55---O-4--O------5-55---O-4--O------4-44-4444------|| 
E ||---------------5------------------5--------------2-22-|| 

BRIDGE
                "woe yoe yoe..."
G ||------------------------------------------------------|| 
D ||-------------------44-2-------------------------------|| 
A ||------------------------4-O-----O-4--5----------------|| 
E ||-555--55--555--55----------------------5--------------|| 

      "Buffalo soldier,trodding through the land.."
G ||----------------------------------------------|| 
D ||----------------------------------------------|| 
A ||----------------------55-5--554----4----------||  X2
E ||-555--55--555--555----------------------------||

corrections and stuff to:
c.duffy@ireland.com 
comments
print report bad tab
3 comments total.
0 reply
Desiremusic123 wrote on October 9 2007, 12:15 pm

wrong

0 reply
eternity12 wrote on October 26 2008, 01:54 pm

pretty good actually, just have to get the rythem and when to play which one

0 reply
eternity12 wrote on October 29 2008, 04:07 pm

only i play it like this...

G ||--------------------------------------------------||
D ||-------------------44-2-----------4----4----------||
A ||------------------------4-------0-----------------||
E ||-555--55--555--55-----------------------55--------||

I want to post or [tab]
guest
You may want to rate the tab now too:
select rating
Please do not post tabs as comments. Select "correction" instead!