Oops, an error
Loading. Please wait.

Buffalo Soldier Bass Tab

version 1
version 1

Whole song

Interactive

46,662 views 33 this week
3 commentsread comments
1 2 3 4 5
x 8
add to favorites
launch autoscroll
font size
0
reset
guitar tuner
Autoscroll
slow
fast
+/-
esc
set tempo
stop
Help us to improve Ultimate-Guitar.com Take our survey!
×
BOB MARLEY and THE WAILERS
                              BUFFALO SOLDIER

                          album:  CONFRONTATION


[INTRO] : Keep hitting 5 on E

[Chorus]
G ||----------------------------------------------------------|| 
D ||-------------------------4-4-2-----------4----4-----------|| 
A ||-------------------------------4-O------------------------|| 
E ||-5-5-5--5-5--5-5-5--5-5----------------O-------5-5--------||

[Verse]
G ||-------------------------------------------------------------|| 
D ||-------------------------------------------------------------|| 
A ||-5-5-5---O-4--O------5-5-5---O-4--O------4-4-4-4-4-4-4-------|| 
E ||----------------5-------------------5------------------2-2-2-|| 

[Bridge]
                "woe yoe yoe..."
G ||-------------------------------------------------------------|| 
D ||-------------------------4-4-2-------------------------------|| 
A ||-------------------------------4-O-----O-4--5----------------|| 
E ||-5-5-5--5-5--5-5-5--5-5-----------------------5--------------|| 

      "Buffalo soldier,trodding through the land.."
G ||--------------------------------------------------------|| 
D ||--------------------------------------------------------|| 
A ||-----------------------------5-5-5--5-5-4----4----------||  X2
E ||-5-5-5--5-5--5-5-5--5-5-5-------------------------------||
Suggest correction
comments
print report bad tab
3 comments total.
0 reply
Desiremusic123 10 Oct 09, 2007 12:15 PM

wrong

0 reply
eternity12 10 Oct 26, 2008 01:54 PM

pretty good actually, just have to get the rythem and when to play which one

0 reply
eternity12 10 Oct 29, 2008 04:07 PM

only i play it like this...

G ||--------------------------------------------------||
D ||-------------------44-2-----------4----4----------||
A ||------------------------4-------0-----------------||
E ||-555--55--555--55-----------------------55--------||

guest
You may want to rate the tab now too:
select rating
Wanna post a correction for this tab? Suggest correction