Oops, an error
Loading. Please wait.

Caution Tab

1,460 views 6 this week
no commentswrite comment
1 2 3 4 5
please rate
add to favorites
launch autoscroll
font size
0
reset
how to read this tab
guitar tuner
Tab Pro tools
  • play this tab
  • loop segment
  • change instrument
  • show fretboard
  • metronome
×
Best way to learn
"Caution"
Autoscroll
slow
fast
+/-
esc
set tempo
stop
Contributor
Song: Caution
Band: Bob Marley and the Wailers

Intro:
|-----------------------------------------------------|
|-----------------------------------------------------|
|--/99999999---9x----77-------------------------------|
|-------------------------10-10--x--77--------5-------|
|-----------------------------------------5-7---7-----|
|-------------------------------------------------5~--|


Verse:
[Am    Em    Dm] 
|-5-----7-----5---|
|-5-----8-----6---|
|-5-----9-----7---|
|-----------------|
|-----------------|
|-----------------|

Another guitar in the verse:
|-----------------------------------|-------------------------------------|
|-----------------------------------|-------------------------------------|
|--99-99-9-9--77--------------------|--999-999-99-777-7-------------------|[x2]
|----------------10-10-77--------5--|-------------------10-10-77-----5----|
|---------------------------555-7---|-----------------------------5-7-----|
|---------------------------------5-|----------------------------------5--|



Bridge:
[G     Am     F    C]
|-3-----5-----1----8---|
|-3-----5-----1----8---|
|-4-----5-----2----9---|[x2]
|-5-----x-----3----10--|
|----------------------|
|----------------------|
Another Guitar in the bridge:
|-----------------------------------------------|
|-----------------------------------------------|
|-----------------------------------------------|
|--555-555-5x----777-777-7x----333-333-3x-------|
|-----------------------------------------333-3-|
|-----------------------------------------------|

|------------------------------------------------|
|------------------------------------------------|
|------------------------------------------------|
|--555x555x55----77xx77x77---333xx3x33x----------|
|---------------------------------------333x3----|
|------------------------------------------------|



Chorus:
[Em    Am]
|-7-----5---|
|-8-----5---|
|-9-----5---|[x4]
|-----------|
|-----------|
|-----------|

Another Guitar in the chorus:
|---------------------------------|------------------|
|---------------------------------|------------------|
|x9999-99-99----7-----------------|-------------99---|
|-----------7-10--7-5----------5--|------5----77-----|
|--------------------7----5-7-----|--77-7------------|
|----------------------------7----|------------------|

|--------------------------|----------------------------------|
|---x-x-x------------------|---x-x-x-------------------x-x-x--|
|--xxxxxx------------999---|--xxxxxx------------999---xxxxxx--|
|--xxxxxx------5---77------|--xxxxxx------5---77------xxxxxx--|
|--x-x-x---77-7---------7--|--x-x-x---77-7---------7--x-x-x---|
|--------------------------|----------------------------------|


Repeat:
[Bridge]

[Intro]+("Hit me from the top, crazy mother funk yeah")

[Bridge]

[Chorus]

End.



David-Argentina
comments
We did not receive enough feedback on this tab! Please rate:
print report bad tab
1 2 3 4 5
I want to post or [tab]
guest
You may want to rate the tab now too:
select rating
Please do not post tabs as comments. Select "correction" instead!