Oops, an error
Loading. Please wait.

Chant Down Babylon Bass Tab

2,454 views 3 this week
no commentswrite comment
1 2 3 4 5
accurate
x 3
add to favorites
launch autoscroll
font size
0
reset
guitar tuner
Tab Pro tools
  • play this tab
  • loop segment
  • change instrument
  • show fretboard
  • metronome
×
Best way to learn
"Chant Down Babylon"
Autoscroll
slow
fast
+/-
esc
set tempo
stop
Contributor
Artist - Bob Marley & the Wailers
Title - Chant Down Babylon
Album - Confrontation
Bass Tab

Tabbed by - mattydread2@yahoo.com

intro
G|-------------------------------------------------|
D|-------------------------------------------------|
A|-------------------------------------------------|
E|--66-66---8-8-8---66-66---8-8-8---66-66---8-8-8--|

G|-----------------|
D|----------88-10--|
A|--88-88----------|
E|--------8--------|

chorus          (tens)
G|-------------------------------------|
D|-----------88-1010----------88-1010--|
A|--88-88-------------88-88------------|
E|--------8-----------------8----------|

G|-------------------------------------|
D|-----------88-1010----------88-1010--|
A|--88-88-------------88-88------------|
E|--------8-----------------8----------|

verse
G|------------------------------------------------------------------------|
D|-------------7----------------7--------------88-1010-----------88-1010--|
A|-------58-55---5--------58-55---5---88-88-------------88-88-------------|
E|--6---6--6---------6---6--6---------------8-----------------8-----------|

bridge
G|------7-------------------------------7----------------------------|
D|-------------------------------------------------------------------|
A|--5-----5---------55-55-5---------5--5--5---------55-55-5----------|
E|-----------85-6------------35-6-8----------85-6------------35-6-8--|


G|--------------------------------------------------------|
D|----------10----------------10----------------10--------|
A|------8-------10--------8-------10--------8-------10----|
E|--66-6--6---8----8--66-6--6---8----8--66-6--6---8----8--|


repeat chorus x2


verse 2
G|--------------------------------------------------------------------------|
D|-------------7-7---------------7-7-------------88-1010-----------88-1010--|
A|-------58-55-----5------58-55------5--88-88-------------88-88-------------|
E|--6---6--6---------6---6--6-----------------8-----------------8-----------|

bridge 2
G|------7-------------------------------7----------------------------|
D|-------------------------------------------------------------------|
A|--5-----5---------55-55-5---------55-5--5---------55-55-5----------|
E|-----------85-6------------35-6-8----------85-6------------35-6-8--|


G|--------------------------------------------------------|
D|----------10----------------10----------------10--------|
A|------8-------10--------8-------10--------8-------10----|
E|--66-6--6---8----8--66-6--6---8----8--66-6--6---8----8--|


play out on chorus...
comments
We did not receive enough feedback on this tab! Please rate:
print report bad tab
1 2 3 4 5
I want to post or [tab]
guest
You may want to rate the tab now too:
select rating
Please do not post tabs as comments. Select "correction" instead!