Oops, an error
Loading. Please wait.

Concrete Jungle Tab

version 2
version 2

Whole song

Interactive

37,075 views 54 this week
4 commentsread comments
1 2 3 4 5
x 13
add to favorites
launch autoscroll
font size
0
reset
how to read this tab
guitar tuner
Autoscroll
slow
fast
+/-
esc
set tempo
stop
Author
Difficulty
intermediate
Tuning: standard 

[Verse]
    Em              Am              Em              Em
e|--7---7---7---7---5---5---5---5---7---7---7---7---7---7---7---7--|
B|--8---8---8---8---5---5---5---5---8---8---8---8---8---8---8---8--|
G|--9---9---9---9---5---5---5---5---9---9---9---9---9---9---9---9--|  
D|--9---9---9---9---7---7---7---7---9---9---9---9---9---9---9---9--|
A|--7---7---7---7---7---7---7---7---7---7---7---7---7---7---7---7--|
E|------------------5---5---5---5----------------------------------|

    Em              Am              D               D
e|--7---7---7---7---5---5---5---5---5---5---5---5---5---5---5---5--|
B|--8---8---8---8---5---5---5---5---7---7---7---7---7---7---7---7--|
G|--9---9---9---9---5---5---5---5---7---7---7---7---7---7---7---7--|
D|--9---9---9---9---7---7---7---7---7---7---7---7---7---7---7---7--|
A|--7---7---7---7---7---7---7---7---5---5---5---5---5---5---5---5--|
E|------------------5---5---5---5----------------------------------|

    C              Cmaj7            C              Cmaj7             
e|--3---3---3---3---3---3---3---3---3---3---3---3---3---3---3---3--|
B|--5---5---5---5---5---5---5---5---5---5---5---5---5---5---5---5--|
G|--5---5---5---5---4---4---4---4---5---5---5---5---4---4---4---4--|
D|--5---5---5---5---5---5---5---5---5---5---5---5---5---5---5---5--|
A|--3---3---3---3---3---3---3---3---3---3---3---3---3---3---3---3--|
E|-----------------------------------------------------------------|

    G               G               D               D               
e|--3---3---3---3---3---3---3---3---5---5---5---5---5---5---5---5--|
B|--3---3---3---3---3---3---3---3---7---7---7---7---7---7---7---7--|
G|--4---4---4---4---4---4---4---4---7---7---7---7---7---7---7---7--|
D|--5---5---5---5---5---5---5---5---7---7---7---7---7---7---7---7--|
A|--5---5---5---5---5---5---5---5---5---5---5---5---5---5---5---5--|
E|--3---3---3---3---3---3---3---3----------------------------------|

    Em      
e|--7---7---7---7---7---7---7---7---7---7---7---7---7---7---7---7--|
B|--8---8---8---8---8---8---8---8---8---8---8---8---8---8---8---8--|
G|--9---9---9---9---9---9---9---9---9---9---9---9---9---9---9---9--|
D|--9---9---9---9---9---9---9---9---9---9---9---9---9---9---9---9--|
A|--7---7---7---7---7---7---7---7---7---7---7---7---7---7---7---7--|
E|-----------------------------------------------------------------|

[Chorus]
    Em                              Em
e|--7---7---10--10--9---9---8---8---7---7---10--10--9---9---8---8--|
B|--8---8---8---8---8---8---8---8---8---8---8---8---8---8---8---8--|
G|--9---9---9---9---9---9---9---9---9---9---9---9---9---9---9---9--|
D|-----------------------------------------------------------------|
A|-----------------------------------------------------------------|
E|-----------------------------------------------------------------|

[Solo]   
(2:52)
e|-------------|--------------------------------|
B|------6~~----|---------5h6p5---5----5h6p5-----|
G|-------------|-4h5-5/7-------7---7--------7-5-|
D|--5h7-----7~-|--------------------------------|
A|-------------|--------------------------------|
E|-------------|--------------------------------|

e|----------------------------|-----------------------------|
B|----------------------------|-----------------------------|
G|-5/7-7/9-9-9h10p9h10p9h10/12|----------------12----12-12--|
D|----------------------------|-14b~14b~r--14b----14--------|
A|----------------------------|-----------------------------|
E|----------------------------|-----------------------------|

e|-----------------------12-------------------|
B|--------------------12----15p12----12-15b---|
G|-12h14p12----12-14b-------------14----------|
D|----------14--------------------------------|
A|--------------------------------------------|
E|--------------------------------------------|

(3:09)
e|------------------|--------------------17-|-----------------17b-17b-17br-|
B|-17brp15----15-15-|----15-17brp15----15---|-15----15-17b-15--------------|
G|--------h16-------|-16----------h16-------|----16------------------------|
D|------------------|-----------------------|------------------------------|
A|------------------|-----------------------|------------------------------|
E|------------------|-----------------------|------------------------------|

e|--p16p15----15----|-14-17p14----|-14-15p14-15p14-15-|-14-15p14----------|
B|---------17----17-|----------15-|-------------------|----------15-15/17-|
G|------------------|-------------|-------------------|-------------------|
D|------------------|-------------|-------------------|-------------------|
A|------------------|-------------|-------------------|-------------------|
E|------------------|-------------|-------------------|-------------------|

                                    (3:25)
e|------------------|----------------15-------------|
B|-17brp15----15h17-|-15-17-15-17-17b---17b-17b-17b-|
G|--------h16-------|-------------------------------|
D|------------------|-------------------------------|
A|------------------|-------------------------------|
E|------------------|-------------------------------|

e|---------------17b~~~-15----|
B|-17brp15----15-----------17-|
G|--------h16-----------------|
D|----------------------------|
A|----------------------------|
E|----------------------------|


************************************

| h   Hammer-on
| p   Pull-off
| ~   Vibrato
| /   Slide up
| b   Bend
| br  Bend release

************************************
Suggest correction
comments
print report bad tab
4 comments total. Showing first comments.
+1 reply
FrancescoZZ 10 Jun 15, 2013 02:38 PM

=============================================================================
Concrete Jungle - Bob Marley
=============================================================================
Tabbed by: Cade Nickels

Tuning:standard

Verse

Em Am Em Em

e|--7---7---7---7---5---5---5---5---7---7---7---7---7---7---7---7--|
B|--8---8---8---8---5---5---5---5---8---8---8---8---8---8---8---8--|
G|--9---9---9---9---5---5---5---5---9---9---9---9---9---9---9---9--|
D|--9---9---9---9---7---7---7---7---9---9---9---9---9---9---9---9--|
A|--7---7---7---7---7---7---7---7---7---7---7---7---7---7---7---7--|
E|------------------5---5---5---5----------------------------------|

Em Am D D

e|--7---7---7---7---5---5---5---5---5---5---5---5---5---5---5---5--|
B|--8---8---8---8---5---5---5---5---7---7---7---7---7---7---7---7--|
G|--9---9---9---9---5---5---5---5---7---7---7---7---7---7---7---7--|
D|--9---9---9---9---7---7---7---7---7---7---7---7---7---7---7---7--|
A|--7---7---7---7---7---7---7---7---5---5---5---5---5---5---5---5--|
E|------------------5---5---5---5----------------------------------|

C Em C Em

e|--3---3---3---3---7---7---7---7---3---3---3---3---7---7---7---7--|
B|--5---5---5---5---8---8---8---8---5---5---5---5---8---8---8---8--|
G|--5---5---5---5---9---9---9---9---5---5---5---5---9---9---9---9--|
D|--5---5---5---5---9---9---9---9---5---5---5---5---9---9---9---9--|
A|--3---3---3---3---7---7---7---7---3---3---3---3---7---7---7---7--|
E|-----------------------------------------------------------------|

G G D D

e|--3---3---3---3---3---3---3---3---5---5---5---5---5---5---5---5--|
B|--3---3---3---3---3---3---3---3---7---7---7---7---7---7---7---7--|
G|--4---4---4---4---4---4---4---4---7---7---7---7---7---7---7---7--|
D|--5---5---5---5---5---5---5---5---7---7---7---7---7---7---7---7--|
A|--5---5---5---5---5---5---5---5---5---5---5---5---5---5---5---5--|
E|--3---3---3---3---3---3---3---3----------------------------------|

Em Am Em Em

e|--7---7---7---7---5---5---5---5---7---7---7---7---7---7---7---7--|
B|--8---8---8---8---5---5---5---5---8---8---8---8---8---8---8---8--|
G|--9---9---9---9---5---5---5---5---9---9---9---9---9---9---9---9--|
D|--9---9---9---9---7---7---7---7---9---9---9---9---9---9---9---9--|
A|--7---7---7---7---7---7---7---7---7---7---7---7---7---7---7---7--|
E|------------------5---5---5---5----------------------------------|

Chorus
Em Em7 Em6 C Em Em7 Em6 C

e|--7---7---10--10--9---9---8---8-|-7---7---10--10--9---9---8---8--|
B|--8---8---8---8---8---8---8---8-|-8---8---8---8---8---8---8---8--|
G|--9---9---9---9---9---9---9---9-|-9---9---9---9---9---9---9---9--|
D|--------------------------------|--------------------------------|
A|--------------------------------|--------------------------------|
E|--------------------------------|--------------------------------|

Solo

2:52
e|-------------|--------------------------------|
B|------8~~----|---------7h8p7---7----7h8p7-----|
G|-------------|-6\7-7/9-------9---9--------9-7-|
D|--7h9-----9~-|--------------------------------|
A|-------------|--------------------------------|
E|-------------|--------------------------------|

e|-------------------------------|----------------------------------|
B|-------------------------------|----------------------------------|
G|-7/9-9/11--11h12p11h12p11h12/14|-14brb14brb14b~--14brp12----12-12-|
D|-------------------------------|-------------------------14-------|
A|-------------------------------|----------------------------------|
E|-------------------------------|----------------------------------|

e|-------------------12---------12------|
B|-----------------12---15p12------15b--|
G|-12h14p12-----14b----------14b--------|
D|----------14--------------------------|
A|--------------------------------------|
E|--------------------------------------|

3:09
e|-------------------|----------------17-|-----------------17b-17b-17brp15----15----|
B|-17brp15----15-15--|----15-17brp15-----|-15----15-17br-15----------------17----17~|
G|---------16--------|-16----------------|----16------------------------------------|
D|-------------------|-------------------|------------------------------------------|
A|-------------------|-------------------|------------------------------------------|
E|-------------------|-------------------|------------------------------------------|

e|-14-17p14----|-14-15p14-15p14-15p14h15p14\15~|-14h15p14-------------|
B|----------15-|-------------------------------|----------15-15/17-17~|
G|-------------|-------------------------------|----------------------|
D|-------------|-------------------------------|----------------------|
A|-------------|-------------------------------|--------------

0 reply
FrancescoZZ 10 Jun 15, 2013 02:41 PM

=============================================================================
Concrete Jungle - Bob Marley
=============================================================================
Tabbed by: FrancescoZZ
Based on tab by Cade Nickels

Tuning:standard

Verse

Em Am Em Em

e|--7---7---7---7---5---5---5---5---7---7---7---7---7---7---7---7--|
B|--8---8---8---8---5---5---5---5---8---8---8---8---8---8---8---8--|
G|--9---9---9---9---5---5---5---5---9---9---9---9---9---9---9---9--|
D|--9---9---9---9---7---7---7---7---9---9---9---9---9---9---9---9--|
A|--7---7---7---7---7---7---7---7---7---7---7---7---7---7---7---7--|
E|------------------5---5---5---5----------------------------------|

Em Am D D

e|--7---7---7---7---5---5---5---5---5---5---5---5---5---5---5---5--|
B|--8---8---8---8---5---5---5---5---7---7---7---7---7---7---7---7--|
G|--9---9---9---9---5---5---5---5---7---7---7---7---7---7---7---7--|
D|--9---9---9---9---7---7---7---7---7---7---7---7---7---7---7---7--|
A|--7---7---7---7---7---7---7---7---5---5---5---5---5---5---5---5--|
E|------------------5---5---5---5----------------------------------|

C Em C Em

e|--3---3---3---3---7---7---7---7---3---3---3---3---7---7---7---7--|
B|--5---5---5---5---8---8---8---8---5---5---5---5---8---8---8---8--|
G|--5---5---5---5---9---9---9---9---5---5---5---5---9---9---9---9--|
D|--5---5---5---5---9---9---9---9---5---5---5---5---9---9---9---9--|
A|--3---3---3---3---7---7---7---7---3---3---3---3---7---7---7---7--|
E|-----------------------------------------------------------------|

G G D D

e|--3---3---3---3---3---3---3---3---5---5---5---5---5---5---5---5--|
B|--3---3---3---3---3---3---3---3---7---7---7---7---7---7---7---7--|
G|--4---4---4---4---4---4---4---4---7---7---7---7---7---7---7---7--|
D|--5---5---5---5---5---5---5---5---7---7---7---7---7---7---7---7--|
A|--5---5---5---5---5---5---5---5---5---5---5---5---5---5---5---5--|
E|--3---3---3---3---3---3---3---3----------------------------------|

Em Am Em Em

e|--7---7---7---7---5---5---5---5---7---7---7---7---7---7---7---7--|
B|--8---8---8---8---5---5---5---5---8---8---8---8---8---8---8---8--|
G|--9---9---9---9---5---5---5---5---9---9---9---9---9---9---9---9--|
D|--9---9---9---9---7---7---7---7---9---9---9---9---9---9---9---9--|
A|--7---7---7---7---7---7---7---7---7---7---7---7---7---7---7---7--|
E|------------------5---5---5---5----------------------------------|

Chorus
Em Em7 Em6 C Em Em7 Em6 C

e|--7---7---10--10--9---9---8---8-|-7---7---10--10--9---9---8---8--|
B|--8---8---8---8---8---8---8---8-|-8---8---8---8---8---8---8---8--|
G|--9---9---9---9---9---9---9---9-|-9---9---9---9---9---9---9---9--|
D|--------------------------------|--------------------------------|
A|--------------------------------|--------------------------------|
E|--------------------------------|--------------------------------|

Solo

2:52
e|-------------|--------------------------------|
B|------8~~----|---------7h8p7---7----7h8p7-----|
G|-------------|-6\7-7/9-------9---9--------9-7-|
D|--7h9-----9~-|--------------------------------|
A|-------------|--------------------------------|
E|-------------|--------------------------------|

e|-------------------------------|----------------------------------|
B|-------------------------------|----------------------------------|
G|-7/9-9/11--11h12p11h12p11h12/14|-14brb14brb14b~--14brp12----12-12-|
D|-------------------------------|-------------------------14-------|
A|-------------------------------|----------------------------------|
E|-------------------------------|----------------------------------|

e|-------------------12---------12------|
B|-----------------12---15p12------15b--|
G|-12h14p12-----14b----------14b--------|
D|----------14--------------------------|
A|--------------------------------------|
E|--------------------------------------|

3:09
e|-------------------|----------------17-|-----------------17b-17b-17brp15----15----|
B|-17brp15----15-15--|----15-17brp15-----|-15----15-17br-15----------------17----17~|
G|---------16--------|-16----------------|----16------------------------------------|
D|-------------------|-------------------|------------------------------------------|
A|-------------------|-------------------|------------------------------------------|
E|-------------------|-------------------|------------------------------------------|

e|-14-17p14----|-14-15p14-15p14-15p14h15p14\15~|-14h15p14-------------|
B|----------15-|-------------------------------|----------15-15/17-17~|
G|-------------|-------------------------------|----------------------|
D|-------------|-------------------------------|----------------------|
A|

0 reply
FrancescoZZ 10 Jun 15, 2013 02:42 PM

sorry about the double post (never submitted/tried correcting before).
Anyway there are a few errors in the song.

guest
You may want to rate the tab now too:
select rating
Wanna post a correction for this tab? Suggest correction