Oops, an error
Loading. Please wait.

Could You Be Loved Bass Tab

version 2
version 2

Whole song

Interactive

42,616 views 72 this week
no commentswrite comment
1 2 3 4 5
2 more votes to show rating
add to favorites
launch autoscroll
font size
0
reset
guitar tuner
Autoscroll
slow
fast
+/-
esc
set tempo
stop
Help us to improve Ultimate-Guitar.com Take our survey!
×
Song: Could you be loved
Band: Bob Marley
Album: Greatest hits, Ect.
tabbed by:David from lunch box orchestra

This tab is completely perfect and its not as hard as it looks, it's prety
repetative. Good song

[Intro]

G|---------------------------------------------------------------|
D|---------4-----------------------------------------------------|
A|--2---5----54--------------------------------------------------|
E|---------------------------------------------------------------|(x2)

[Riff 1]

G|---------------------------------------------------------------|
D|---------------------------------------------------------------|
A|-55--5555-----22--2222--------------55--202-5------------------|
E|--------------------------33--3333-----------------------------|(x2)

[Riff 2]

G|-------------------------------------------------------------------|
D|------2-4---------2-4-----22-22---22--22---------------------------|
A|--2-5-----2---2-5-----2--------------------------------------------|
E|-------------------------------------------------------------------|(x2)

[Riff 3]

G|------------------------------77------66------------------------------|
D|------2-4---------2-4-----55------44-------22-2--2--------2-4---------|
A|--2-5-----2---2-5-----2-------------------------2-----2-5-----2-------|
E|----------------------------------------------------------------------|

G|------------------77------66----22--------------------------------------|
D|------2-4-----55------44-----------22-----------------------------------|
A|--2-5-----2----------------------------00-------------------------------|
E|------------------------------------------------------------------------|

[Riff 1] (x2)

[Riff 4] (x6)

G|--------------------------------------------------------------------------|
D|-----------444---------4--------------------------------------------------|
A|--0-2-0-22-----0-2-0-2---2------------------------------------------------|
E|--------------------------------------------------------------------------|

[Riff 3] (x1)

[Riff 1] (x2)

[Riff 6] play about 10 times until song fades out
Suggest correction
Give kudos to tab author, rate the tab!
1 2 3 4 5
comments
print report bad tab
guest
You may want to rate the tab now too:
select rating
Wanna post a correction for this tab? Suggest correction