Oops, an error
Loading. Please wait.

Could You Be Loved Tab

version 2
version 2

Whole song

Interactive

Video

131,040 views 273 this week
5 commentsread comments
1 2 3 4 5
accurate
x 13
add to favorites
launch autoscroll
font size
0
reset
how to read this tab
guitar tuner
Tab Pro tools
  • play this tab
  • loop segment
  • change instrument
  • show fretboard
  • metronome
×
Best way to learn
"Could You Be Loved"
Autoscroll
slow
fast
+/-
esc
set tempo
stop
Contributor
Could you be Loved - Marley and such.


Guitar 1: Intro

|-----------------------------------------------------|
|-----------------------------------------------------|
|-----------------------------------------------------|
|-----------------------------------------------------|
|---2-2--2--2-2--2--4--5--4-2-2--2--2-2--2--4--5--4---|
|-----------------------------------------------------|

Guitar 2:
|---7----7----7----7-----------------------|
|---7----7----7----7-----------------------|
|---7----7----7----7-----------------------|
|------------------------------------------|
|------------------------------------------|
|------------------------------------------|


Guitar 1: Chorus
|-----------------------------------------------------|
|-----------------------------------------------------|
|-----------------------------------------------------|
|---0-0--0--0-0--0--2--4--2---------------------------|
|---------------------------2-2--2--2-2--2--4--5--4---|
|-----------------------------------------------------|

|---------------------------------------------------------|
|---------------------------------------------------------|
|---------------------------------------------------------|
|-------------------------------0-0--0--0-0--0--2--4--2---|
|---------------------------------------------------------|
|---3-3--3-3-3--3-3-3--3-3-3--3---------------------------|

Guitar 2:
|---10----10----10----10----10----10----10----10-------|
|---10----10----10----10----12----12----12----12-------|
|---11----11----11----11----11----11----11----11-------|
|------------------------------------------------------|
|------------------------------------------------------|
|------------------------------------------------------|

|---10----10----10----10----10----10----10----10-------|
|---12----12----12----12----10----10----10----10-------|
|---12----12----12----12----11----11----11----11-------|
|------------------------------------------------------|
|------------------------------------------------------|
|------------------------------------------------------|

Stuff between choruses: Guitar 1
|-----------------------------------------------------|
|-----------------------------------------------------|
|-----------------------------------------------------|
|-----------------------------------------------------|
|---2-2--2--2-2--2--4--5--4-2-2--2--2-2--2--4--5--4---|
|-----------------------------------------------------|

|----------------------------------------------------------|
|----------------------------------------------------------|
|----------------------------------------------------------|
|---2--2--2--(0)h2-0--0-2p0----2--2--2--(0)h2-0--0-2p0-----|
|---------------------------2--------------------------2---|
|----------------------------------------------------------|

|-----------------------------------------------------|
|-----------------------------------------------------|
|-----------------------------------------------------|
|-----------------------------------------------------|
|---2-2--2--2-2--2--4--5--4-2-2--2--2-2--2--4--5--4---|
|-----------------------------------------------------|

|------------------------------------------------------|
|------------------------------------------------------|
|------------------------------------------------------|
|---5-5--5--5-5-4-4--4--4-4-2--2--2--2--2-0--0-2p0-----|
|--------------------------------------------------2---|
|------------------------------------------------------|

|-----------------------------------------------------|
|-----------------------------------------------------|
|-----------------------------------------------------|
|-----------------------------------------------------|
|---2-2--2--2-2--2--4--5--4-2-2--2--2-2--2--4--5--4---|
|-----------------------------------------------------|

|-----------------------------------------------------------|
|-----------------------------------------------------------|
|-----------------------------------------------------------|
|---5-5--5--5-5-4-4--4--4-4-(4)/7-7--7--7-7--7-7-7--7-7-7---|
|-----------------------------------------------------------|
|-----------------------------------------------------------|

Stuff between choruses: Guitar 2
|---7----7----7----7----7----7----7----7---|
|---7----7----7----7----7----7----7----7---|
|---7----7----7----7----7----7----7----7---|
|------------------------------------------|
|------------------------------------------|
|------------------------------------------|

|---7----7----7----7----7----7----7----7---|
|---8----8----8----8----8----8----8----8---|
|---9----9----9----9----9----9----9----9---|
|------------------------------------------|
|------------------------------------------|
|------------------------------------------|

|---10----10----10----10----9----9----9----9----7----7----7----7---|
|---12----12----12----12----10---10---10---10---8----8----8----8---|
|---12----12----12----12----11---11---11---11---9----9----9----9---|
|------------------------------------------------------------------|
|------------------------------------------------------------------|
|------------------------------------------------------------------|

|---7----7----7----7----7----7----7----7---|
|---7----7----7----7----7----7----7----7---|
|---7----7----7----7----7----7----7----7---|
|------------------------------------------|
|------------------------------------------|
|------------------------------------------|

|---10----10----10----10----9----9----9----9----12----12----12----12---|
|---12----12----12----12----10---10---10---10---14----14----14----14---|
|---12----12----12----12----11---11---11---11---14----14----14----14---|
|----------------------------------------------------------------------|
|----------------------------------------------------------------------|
|----------------------------------------------------------------------|


Other between-choruses bit: guitar 1
|-------------------------------------------------------|
|-------------------------------------------------------|
|-------------------------------------------------------|
|-------------------------------------------------------|
|---2-2--2--2-2--2--4--5--4--2-2--2--2-2--(0)h2p0-------|
|-------------------------------------------------2-2---|

guitar 2:
|---7----7----7----7----7----7----7----7---|
|---7----7----7----7----7----7----7----7---|
|---7----7----7----7----7----7----7----7---|
|------------------------------------------|
|------------------------------------------|
|------------------------------------------|


Neat little keyboard riff during verses:

|------------------------------------------------------|
|---10h12-10-8-7-----7-8-10-----3-5-7---7h8-7-5-3/-7---|
|---11h12-11-9-7-----7-7-11-----4-5-7---7---7-5-4/-7---|
|------------------9----------5------------------------|
|------------------------------------------------------|
|------------------------------------------------------|

~fin~
comments
print report bad tab
5 comments total. Showing first comments.
0 reply
Good Ol' Ramos wrote on August 28 2009, 11:44 am

not a very difficult song, and the tab was easy to read... nicely done!

0 reply
Frusciante19 wrote on November 1 2010, 11:11 am

nice tab thanks

0 reply
SubtleScream wrote on February 12 2012, 07:33 pm

beauty tab!

I want to post or [tab]
guest
You may want to rate the tab now too:
select rating
Please do not post tabs as comments. Select "correction" instead!