Oops, an error
Loading. Please wait.

Easy Skanking Bass Tab

version 1
version 1

Whole song

2,950 views 1 this week
1 commentread comment
1 2 3 4 5
please rate
add to favorites
launch autoscroll
font size
0
reset
guitar tuner
Autoscroll
slow
fast
+/-
esc
set tempo
stop
Help us to improve Ultimate-Guitar.com Take our survey!
×
ALBUM "Natural Mystic"
Song Name : "Easy Skanking"
Words and Music by the "king" Bob Marley....

If anybody have some good Bob tablature, some corrections or whatever, please
send it to me...
You should combine this with the other .crd version of the
music, so you'll have the lyrics and all...
Hope you'll enjoy playing.....


**Bass Line to use with the Intro, Verse and Chorus...

  Bb
e|-----------------------------------------|
B|-----------------------------------------|
G|-----------------------------------------|
D|----------0--0--3------------0--0--3--3--|
A|-1--1--1------------1--1--1--------------|
E|-----------------------------------------|
  Gm
e|-----------------------------------------|
B|-----------------------------------------|
G|-----------------------------------------|
D|----------------0------------------0--0--|
A|----------1--1---------------1--1--------|
E|-3--3--3------------3--3--3--------------|

**Bass Line to use with the Bridge...

   Eb                   Dm
e|------------------------------------------|
B|------------------------------------------|
G|----------3--3--3-------------------------|
D|-1--1--1-----------1--0-----0-----0-----1-|
A|-------------------------0-----0-----0----|
E|------------------------------------------|


Very hard isn't it?! Very nice to play though....

That's All Folks!
gustavo.mera@mandic.com.br


Suggest correction
Give kudos to tab author, rate the tab!
1 2 3 4 5
comments
print report bad tab
1 comment total.
0 reply
mattydread 2,677 wrote on June 18 2007, 06:23 pm

its pretty close but not perfect and you've tabbed it kinda hard to play, this is my version which will probably be rejected cos yours is already up, but anyway try this...

Title;Easy Skanking
Artist;Bob Marley & the Wailers
Album;Kaya
Tabbed by;mattydread
E-mail;mattydread2@yahoo.com

chorus X2(first time inc.intro)
G|-------------------------------------------------------------|
D|-------------------------------------------------------------|
A|----558----5588------5------55----558----5588------5------55-|
E|-666----666-----33366--33366---666----666-----33366--33366---|

verse
G|---------------------------------------------------------------|
D|--------------------558----5588--------------------558----55---|
A|----558----5588--666----666--------558----5588--666----666--66-|
E|-666----666---------------------666----666---------------------|

repeat chorus and then...

break
G|------------------------------------------------------------------|
D|-----88--------------88--------------88--------------88-----------|
A|-6666--665555--556666--665555--556666--665555--556666--665555--55-|
E|-------------55--------------55--------------55--------------55---|

repeat chorus,verse,chorus,break and chorus to fade

guest
You may want to rate the tab now too:
select rating
Please do not post tabs as comments. Select "correction" instead!