Oops, an error
Loading. Please wait.

Get Up Stand Up Bass

version 1
version 1

Whole song

Interactive

36,248 views 33 this week
1 commentread comment
1 2 3 4 5
x 10
add to favorites
launch autoscroll
font size
0
reset
guitar tuner
×
Best way to learn
"Get Up Stand Up"
Autoscroll
slow
fast
+/-
esc
set tempo
stop
Song:  Get Up Stand Up
Artist: Bob Marley & The Wailers
Album: Burnin
Nuff Respect To: Aston "Family Man" Barrett
Tab: Gonz (thegonz1@hotmail.com)


1st Riff (play 2x)

G-------0--------------------0----------0----------------0--------------
D---------1----0-1-0-------0--------------1--0-1-0------0----3/5--------
A-3------------------3------------1-3-------------3-33-----------------1
E------------------------------3----------------------------------------


2nd Riff (play 2x)

G--------8---------------------------
D------5-------------5---------------
A--6-8-----------6-8-----------------
E--------------8--------6-8--------8-

That's about it. Just play the 1st riff twice, then the 2nd riff twice over 
and over until the end where you just repeat the 1st riff until it fades. 
Pretty easy and fun to play once you memorize it.
Suggest correction
comments
print report bad tab
1 comment total.
0 reply
mattydread 2,677 Jun 18, 2007 02:52 PM

yeah pretty much what i was playin except i prefer to play the most of it on the A & D strings oh and u forgot the intro...

G|--------------------------
D|--------------------------
A|-1-1--1-1--1-3--1-1--1-1--
E|--------------------------

guest
You may want to rate the tab now too:
select rating
Wanna post a correction for this tab? Suggest correction