Oops, an error
Loading. Please wait.

Get Up Stand Up Bass Tab

version 2
version 2

Whole song

Interactive

23,233 views 30 this week
no commentswrite comment
1 2 3 4 5
x 7
add to favorites
launch autoscroll
font size
0
reset
guitar tuner
Autoscroll
slow
fast
+/-
esc
set tempo
stop
Help us to improve Ultimate-Guitar.com Take our survey!
×
Author
Song: Get Up Stand Up
Artist: Bob Marley & The Wailers
Album: Burnin'
Bassist: Aston 'Family Man' Barrett
Tabbed by mattydread2@yahoo.com

h=hammeron to note
p=pulloff to note
(8)=let note ring

intro 
G|------------------------|
D|------------------------|
A|------------------------|
E|--66--66--68---66--66---|


chorus 
G|----------------------------------------------------------------|
D|---------5------------5------------5---------------5-3h5p3------|
A|----------6-5653-----3--------------6-5653-----3333-------------|
E|--68--------------------3--6-8-----------------------------6-8--|

G|-----------------------------------------------------|
D|--5------------5------------5---------------5-3h5p3--|
A|---6-5653-----3--------------6-5653-----3333---------|
E|-----------------3--6-8------------------------------|



verse 
G|----------(8)-------------------|----------(8)------------------|
D|--------5----------------5------|--------5---------------5------|
A|----6-8-------------6-8---------|----6-8-------------6-8--------|
E|--8---------------8-------6-8---|--8---------------8-------6-8--|

G|----------(8)-------------------|----------(8)------------------|
D|--------5----------------5------|--------5---------------5------|
A|----6-8-------------6-8---------|----6-8-------------6-8--------|
E|--8---------------8-------6-8---|--8---------------8-------6-8--|

repeat chorus/verse...
Suggest correction
comments
print report bad tab
guest
You may want to rate the tab now too:
select rating
Wanna post a correction for this tab? Suggest correction