Oops, an error
Loading. Please wait.

Hallelujah Time Bass Tab

674 views 1 this week
no commentswrite comment
1 2 3 4 5
please rate
add to favorites
launch autoscroll
font size
0
reset
guitar tuner
Autoscroll
slow
fast
+/-
esc
set tempo
stop
Help us to improve Ultimate-Guitar.com Take our survey!
×
Author
Difficulty
intermediate
Title; Hallelujah Time
Artist; Bob Marley & the Wailers
Album; Burnin'
Tabbed by; mattydread2@yahoo.com


intro   /7=slide up to note   (3)=sustain note
G-----------------------------------------------------------------|
D--5-------------------5-----------------5-----------------5------|
A-----------------/7----------------/7-----------------/7---------|
E-----33------33---------33------33---------33------33-------(3)--|


verse
G----------------------------------------------------------------------|
D-------------------------53---53-----------------------------------5--|
A--3-3----3--3-5-------------5-----5---------3--3-5-------------535----|
E-----------5-----3(3)-------------------5-5---5-------(3)----3--------|

G----------------------------------------------------------------------|
D-------------------------53---53-----------------------------------5--|
A--3-3----3--3-5-------------5-----5---------3--3-5-------------535----|
E-----------5-----3(3)-------------------5-5---5-------(3)----3--------|



bridge
G------2-----------------------------2-------------------------|
D--3--5--3-2-(5)-----------------3--5--3-2-(5)----5-----3---5--|
A--------------------2(2)--------------------------------------|
E----------------33-3-------------------------------333---33---|


G------2------------------------------2------------------------|
D--3--5--3-2-(5)-----------------3--5---3-2-(5)----5----3---5--|
A---------------------2(2)-------------------------------------|
E----------------33-3-------------------------------333---33---|


pre-chorus
G--------------------------------------------------------------|
D--------------------------------------------------------------|
A--3-------3--5-3---------3--5-3--------3--5-3----------3-5-3--|
E----5-1-5-------5----1-5-----------1-5--------5----1-5--------|


chorus

G-------------------------------------------------------------------|
D-------------------2--3-5-----------------------------2--3-5-------|
A---33333--------5---------------------33333--------5---------------|
E---------(5)---------------(3)--------------(5)---------------(3)--|


G-------------------------------------------------------------------|
D-------------------2--3-5-----------------------------2--3-5-------|
A---33333--------5---------------------33333--------5---------------|
E---------(5)---------------(3)--------------(5)---------------(3)--|


play verse,
play bridge,
play chorus to fade out
Suggest correction
Give kudos to tab author, rate the tab!
1 2 3 4 5
comments
print report bad tab
guest
You may want to rate the tab now too:
select rating
Wanna post a correction for this tab? Suggest correction