Oops, an error
Loading. Please wait.

I Shot The Sheriff Tab

version 5
version 5

Whole song

Interactive

2,976 views 18 this week
no commentswrite comment
1 2 3 4 5
3 more votes to show rating
add to favorites
launch autoscroll
font size
0
reset
how to read this tab
guitar tuner
Autoscroll
slow
fast
+/-
esc
set tempo
stop
Help us to improve Ultimate-Guitar.com Take our survey!
×
Author
Difficulty
novice
INTRO:

e-x-x--5--x-x--5--x-x--5--x-x--5--x-x--3--x-x--3--x--x--3--x-x--3--|
b-x-x--6--x-x--6--x-x--6--x-x--6--x-x--3--x-x--3--x--x--3--x-x--3--|
g-x-x--7--x-x--7--x-x--7--x-x--7--x-x--3--x-x--3--x--x--3--x-x--3--|
d-x-x--7--x-x--7--x-x--7--x-x--7--x-x--5--x-x--5--x--x--5--x-x--5--|
a------------------------------------------------------------------|
e------------------------------------------------------------------|

e-x-x--5--x-x--5--x-x--5--x-x--5--x-x--3--x-x--3--x--x--3--x-x--3--|
b-x-x--6--x-x--6--x-x--6--x-x--6--x-x--3--x-x--3--x--x--3--x-x--3--|
g-x-x--7--x-x--7--x-x--7--x-x--7--x-x--3--x-x--3--x--x--3--x-x--3--|
d-x-x--7--x-x--7--x-x--7--x-x--7--x-x--5--x-x--5--x--x--5--x-x--5--|
a------------------------------------------------------------------|
e------------------------------------------------------------------|

CHORUS:

e-x-x--5--x-x--5--x-x--5--x-x--5--x-x--3--x-x--3--x--x--3--x-x--3--|
b-x-x--6--x-x--6--x-x--6--x-x--6--x-x--3--x-x--3--x--x--3--x-x--3--|
g-x-x--7--x-x--7--x-x--7--x-x--7--x-x--3--x-x--3--x--x--3--x-x--3--|
d-x-x--7--x-x--7--x-x--7--x-x--7--x-x--5--x-x--5--x--x--5--x-x--5--|
a------------------------------------------------------------------|
e------------------------------------------------------------------|

e-x-x--5--x-x--5--x-x--5--x-x--5--x-x--3--x-x--3--x--x--3--x-x--3--|
b-x-x--6--x-x--6--x-x--6--x-x--6--x-x--3--x-x--3--x--x--3--x-x--3--|
g-x-x--7--x-x--7--x-x--7--x-x--7--x-x--3--x-x--3--x--x--3--x-x--3--|
d-x-x--7--x-x--7--x-x--7--x-x--7--x-x--5--x-x--5--x--x--5--x-x--5--|
a------------------------------------------------------------------|
e------------------------------------------------------------------|

e-x-x--5--x-x--5--x-x--5--x-x--5--x-x--3--x-x--3--x--x--3--x-x--3--|
b-x-x--6--x-x--6--x-x--6--x-x--6--x-x--3--x-x--3--x--x--3--x-x--3--|
g-x-x--7--x-x--7--x-x--7--x-x--7--x-x--3--x-x--3--x--x--3--x-x--3--|
d-x-x--7--x-x--7--x-x--7--x-x--7--x-x--5--x-x--5--x--x--5--x-x--5--|
a------------------------------------------------------------------|
e------------------------------------------------------------------|

e-x-x--5--x-x--5--x-x--5--x-x--5--x-x--3--x-x--3--x--x--3--x-x--3--|
b-x-x--6--x-x--6--x-x--6--x-x--6--x-x--3--x-x--3--x--x--3--x-x--3--|
g-x-x--7--x-x--7--x-x--7--x-x--7--x-x--3--x-x--3--x--x--3--x-x--3--|
d-x-x--7--x-x--7--x-x--7--x-x--7--x-x--5--x-x--5--x--x--5--x-x--5--|
a------------------------------------------------------------------|
e------------------------------------------------------------------|

VERSE:

e-x-x--6--x-x--6--x-x--5--x-x--5--x-x--5--x-x--5--x-x--5--x-x--5---|
b-x-x--6--x-x--6--x-x--5--x-x--5--x-x--6--x-x--6--x-x--6--x-x--6---|
g-x-x--7--x-x--7--x-x--5--x-x--5--x-x--7--x-x--7--x-x--7--x-x--7---|
d-x-x--8--x-x--8--x-x--7--x-x--7--x-x--7--x-x--7--x-x--7--x-x--7---|
a-x-x--8--x-x--8--x-x--7--x-x--7--x-x--5--x-x--5--x-x--5--x-x--5---|
e-x-x--6--x-x--6--x-x--5--x-x--5-----------------------------------|

e-x-x--6--x-x--6--x-x--5--x-x--5--x-x--5--x-x--5--x-x--5--x-x--5---|
b-x-x--6--x-x--6--x-x--5--x-x--5--x-x--6--x-x--6--x-x--6--x-x--6---|
g-x-x--7--x-x--7--x-x--5--x-x--5--x-x--7--x-x--7--x-x--7--x-x--7---|
d-x-x--8--x-x--8--x-x--7--x-x--7--x-x--7--x-x--7--x-x--7--x-x--7---|
a-x-x--8--x-x--8--x-x--7--x-x--7--x-x--5--x-x--5--x-x--5--x-x--5---|
e-x-x--6--x-x--6--x-x--5--x-x--5-----------------------------------|

e-x-x--6--x-x--6--x-x--5--x-x--5--x-x--5--x-x--5--x-x--5--x-x--5---|
b-x-x--6--x-x--6--x-x--5--x-x--5--x-x--6--x-x--6--x-x--6--x-x--6---|
g-x-x--7--x-x--7--x-x--5--x-x--5--x-x--7--x-x--7--x-x--7--x-x--7---|
d-x-x--8--x-x--8--x-x--7--x-x--7--x-x--7--x-x--7--x-x--7--x-x--7---|
a-x-x--8--x-x--8--x-x--7--x-x--7--x-x--5--x-x--5--x-x--5--x-x--5---|
e-x-x--6--x-x--6--x-x--5--x-x--5-----------------------------------|

e-x-x--6--x-x--6--x-x--5--x-x--5--x-x--5--x-x--5--x-x--5--x-x--5---|
b-x-x--6--x-x--6--x-x--5--x-x--5--x-x--6--x-x--6--x-x--6--x-x--6---|
g-x-x--7--x-x--7--x-x--5--x-x--5--x-x--7--x-x--7--x-x--7--x-x--7---|
d-x-x--8--x-x--8--x-x--7--x-x--7--x-x--7--x-x--7--x-x--7--x-x--7---|
a-x-x--8--x-x--8--x-x--7--x-x--7--x-x--5--x-x--5--x-x--5--x-x--5---|
e-x-x--6--x-x--6--x-x--5--x-x--5-----------------------------------|

e-x-x--6--x-x--6--x-x--5--x-x--5--x-x--5--x-x--5--x-x--5--x-x--5---|
b-x-x--6--x-x--6--x-x--5--x-x--5--x-x--6--x-x--6--x-x--6--x-x--6---|
g-x-x--7--x-x--7--x-x--5--x-x--5--x-x--7--x-x--7--x-x--7--x-x--7---|
d-x-x--8--x-x--8--x-x--7--x-x--7--x-x--7--x-x--7--x-x--7--x-x--7---|
a-x-x--8--x-x--8--x-x--7--x-x--7--x-x--5--x-x--5--x-x--5--x-x--5---|
e-x-x--6--x-x--6--x-x--5--x-x--5-----------------------------------|

RIFF:

e------------------------------------------------------------------|
b------------------------------------------------------------------|
g--7--5------------------------------------------------------------|
d--------7--5-----7--5---------------------------------------------|
a--------------8--------8--5---------------------------------------|
e------------------------------------------------------------------|

if you want to have some fun with the number you can use a rhythm part also

RHYTHM PART:

e------------------------------------------------------------------|
b----------------9/10---------------------9/10---------------------|
g--12b-12b-10-12-------------10-10--12-10--------------------------|
d----------------------12-12-------------------12-12---------------|
a------------------------------------------------------------------|
e------------------------------------------------------------------|

e------------------------------------------------------------------|
b----------------9/10---------------------9/10---------------------|
g--12b-12b-10-12-------------10-10--12-10--------------------------|
d----------------------12-12-------------------12-12---------------|
a------------------------------------------------------------------|
e------------------------------------------------------------------|

e--9/10-10--------------------9/10-10-------------9/10-10-10-10----|
b---------13-10-13-13b-10------------13-13-10----------------------|
g-------------------------10------------------10-------------------|
d------------------------------------------------------------------|
a------------------------------------------------------------------|
e------------------------------------------------------------------|

e------------------------------------------------------------------|
b--13-10-13-13b-10---------10-11-13-11-9/10-9/10-------------------|
g--------------------10-12-----------------------------------------|
d------------------------------------------------12----------------|
a------------------------------------------------------------------|
e------------------------------------------------------------------|

e-----------------------------------9/10-8-------------------------|
b--------10-11-13-11-9/10-9/10-------------10-8----10-8------------|
g--10-12----------------------------------------10------10-7-------|
d------------------------------12----------------------------------|
a------------------------------------------------------------------|
e------------------------------------------------------------------|
Suggest correction
Give kudos to tab author, rate the tab!
1 2 3 4 5
comments
print report bad tab
guest
You may want to rate the tab now too:
select rating
Wanna post a correction for this tab? Suggest correction