Oops, an error
Loading. Please wait.

Is This Love Tab

version 2
version 2

Intro

Whole song

Interactive

44,658 views 15 this week
4 commentsread comments
1 2 3 4 5
x 11
add to favorites
launch autoscroll
font size
0
reset
how to read this tab
guitar tuner
Autoscroll
slow
fast
+/-
esc
set tempo
stop
Help us to improve Ultimate-Guitar.com Take our survey!
×
Author
Difficulty
novice
Is This Love? - BOB MARLEY


E]-----------------------------------------------------------|
B]-----------------------------------------------------------|
G]---------2~-------------------6---7-6----7-6---------------|
D]-----2h4----4----2h4-----4h7----7-----7-------7\-----------|
A]---4----------4------55------------------------------------|
E]-2---------------------------------------------------------|

E]-----------------------------------------------------------|
B]-----------------------------------------------------------|
G]---------2~------------------------------------------------|
D]-----2h4----4----2h4-----4h7--/7-7-7-6-7-6-4~--------------|
A]---4----------4------55------------------------------------|
E]-----------------------------------------------------------|


I think this sounds good , and it's simple.
So you try it and see wat u think.  ^ ^
                                  <  |  >
                                    \_/
Suggest correction
comments
print report bad tab
4 comments total. Showing first comments.
+1 reply
Immortal_Guitar 20 May 06, 2006 05:11 PM

sounds good but it has a few mistakes

0 reply
Coc0nutPete 10 Oct 27, 2007 08:41 PM

These are my corrections that I just made after playing this for a few minutes. Sounds good to me.


E]-----------------------------------------------------------|
B]-----------------------------------------------------------|
G]---------2~--------------------6~---7-6----7-6-------------|
D]-----2-4----4----2-4~-----4-7-----7-----7-------7----------|
A]---4----------4-------5------------------------------------|
E]-----------------------------------------------------------|

E]-----------------------------------------------------------|
B]-----------------------------------------------------------|
G]---------2~------------------------------------------------|
D]-----2-4----4----2-4~-----4-7--/7-7-7-6-7-6-4~-------------|
A]---4----------4--------5-----------------------------------|
E]-----------------------------------------------------------|

0 reply
whatswrong? 10 Dec 11, 2011 07:58 AM

Please guys, don´t do tabs when you are deaf. Thank you.

guest
You may want to rate the tab now too:
select rating
Wanna post a correction for this tab? Suggest correction