Oops, an error
Loading. Please wait.

Jamaica Rum Bass Tab

1,817 views 9 this week
no commentswrite comment
1 2 3 4 5
excellent!
x 3
add to favorites
launch autoscroll
font size
0
reset
guitar tuner
Autoscroll
slow
fast
+/-
esc
set tempo
stop
Help us to improve Ultimate-Guitar.com Take our survey!
×
Author
Artist;Bob Marley & the Wailers
Title;Jamaica Rum
Tabbed by; mattydread2@yahoo.com


G---------------------------------------------------|
D--77--------------------------7577-----------------|
A---------------5355--------------------------5355--|
E----------5-----------------------------5----------|


G---------------------------------------------------|
D--75775-55--------------------7577-----------------|
A-------7--757----5355------------------------5355--|
E----------------------------------------5----------|


G--------------------------------------------------------------|
D--75775-55----------------------------------------------------|
A-------7--757----5788--------8----8577------7-----5788--------|
E-----------------------------------------------------------8--|


G------------------------------------------------------------|
D--------------------------------------------------------55--|
A--8577------7-----5788---------8577-----7------5788---------|
E------------------------------------------------------------|


G---------------------------------------------------|
D--7577------------------------7577-----------------|
A---------------5355--------------------------5355--|
E----------5-----------------------------5----------|


G---------------------------------------------------|
D--75775-55--------------------7577-----------------|
A-------7--757----5355------------------------5355--|
E----------------------------------------5----------|


G---------------------------------------------------|
D--75775-55--------------------7577-----------------|
A-------7--757----5355------------------------5355--|
E----------------------------------------5----------|


G---------------------------------------------------|
D--75775-55--------------------7577-----------------|
A-------7--757----5355------------------------5355--|
E----------------------------------------5----------|


G----------------------------------------------------|
D--7577---------------------75775-55-----------------|
A--------------5355--------------7--757--------5355--|
E---------5------------------------------------------|


G---------------------|
D--7577---------------|
A---------------5355--|
E----------5----------|


G----------------------------------------------------------------|
D--75775-55------------------------------------------------------|
A-------7--757----5788--------8----8577------7-----5788----------|
E-----------------------------------------------------------8----|


G-----------------------------------------------------------|
D--------------------------------------------------------5--|
A--8577------7-----5788---------8577-----7------5788--------|
E-----------------------------------------------------------|


G---------------------------------------------------|
D--7577------------------------7577-----------------|
A---------------5355--------------------------5355--|
E----------5-----------------------------5----------|


G---------------------------------------------------|
D--75775-55--------------------7577-----------------|
A-------7--757----5355------------------------5355--|
E----------------------------------------5----------|


G----------------------------------------------------|
D--75775-55--------------------75775-55--------------|
A-------7--757----5355--------------7--757-----5355--|
E----------------------------------------------------|


G---------------------------------------------------|
D--7577------------------------7577-----------------|
A---------------5355--------------------------5355--|
E----------5-----------------------------5----------|


G----------------------------------------------------|
D--75775-55--------------------75775-55--------------|
A-------7--757----5355--------------7--757-----5355--|
E----------------------------------------------------| fade...
Suggest correction
Give kudos to tab author, rate the tab!
1 2 3 4 5
comments
print report bad tab
guest
You may want to rate the tab now too:
select rating
Please do not post tabs as comments. Select "correction" instead!