Oops, an error
Loading. Please wait.

Kinky Reggae Bass Tab

version 1
version 1

Live

Whole song

1,505 views 1 this week
no commentswrite comment
1 2 3 4 5
3 more votes to show rating
add to favorites
launch autoscroll
font size
0
reset
guitar tuner
Autoscroll
slow
fast
+/-
esc
set tempo
stop
Help us to improve Ultimate-Guitar.com Take our survey!
×
Difficulty
intermediate
Song : Kinky Reggae
Artist : Bob Marley
Album : Babylon By Bus (1978)

Greatest live album!!!

G|-------------------------------|
D|-------------------------------|  12x
A|---10-----------------5--------|
E|-------8--8--6-h-8-8----3-3----|

G|--------------------------------------------------------|
D|------------------------10------------------------------|
A|-------------8--8--8-8------8---------------------------|
E|---5--5-5-5---------------------5--7--8--7--5---3-4-----|

G|------------------------------------------------------|
D|------------------------10----------------------------|
A|-------------8--8--8-8------8-------------------------|
E|---5--5-5-5---------------------5--7--8--7--5---------|

G|----------------------------------------------------|
D|---------------------------3-2----------------------|  4x
A|-------------------3-3--3-------3--------3-3--------|
E|---5--5--3-5--5-5------------------3--5-------5-----|

G|--------------------------------------------------------|
D|------------------------10------------------------------|
A|-------------8--8--8-8------8---------------------------|
E|---5--5-5-5---------------------5--7--8--7--5---3-4-----|

G|------------------------------------------------------|
D|------------------------10----------------------------|
A|-------------8--8--8-8------8-------------------------|
E|---5--5-5-5---------------------5--7--8--7--5---------|

G|-------------------------------|
D|-------------------------------|  8x
A|---10-----------------5--------|
E|-------8--8--6-h-8-8----3-3----|

G|--------------------------------------------------------|
D|------------------------10------------------------------|
A|-------------8--8--8-8------8---------------------------|
E|---5--5-5-5---------------------5--7--8--7--5---3-4-----|

G|------------------------------------------------------|
D|------------------------10----------------------------|
A|-------------8--8--8-8------8-------------------------|
E|---5--5-5-5---------------------5--7--8--7--5---------|

G|------------------------------------------------------------|
D|-------------------------------3-2--------------------------|  4x
A|-----------------------3-3--3-------3--------3-3------------|
E|---3-4-5--5--3-5--5-5------------------3--5-------5---------|

G|--------------------------------------------------------|
D|------------------------10------------------------------|
A|-------------8--8--8-8------8---------------------------|
E|---5--5-5-5---------------------5--7--8--7--5---3-4-----|

G|------------------------------------------------------|
D|------------------------10----------------------------|
A|-------------8--8--8-8------8-------------------------|
E|---5--5-5-5---------------------5--7--8--7--5---------|

G|----------------------------------------------------|
D|---------------------------3-2----------------------|  4x
A|-------------------3-3--3-------3--------3-3--------|
E|---5--5--3-5--5-5------------------3--5-------5-----|

G|--------------------------------------------------------|
D|------------------------10------------------------------|
A|-------------8--8--8-8------8---------------------------|
E|---5--5-5-5---------------------5--7--8--7--5---3-4-----|

G|------------------------------------------------------|
D|------------------------10----------------------------|
A|-------------8--8--8-8------8-------------------------|
E|---5--5-5-5---------------------5--7--8--7--5---------|

G|----------------------------------------------------|
D|---------------------------3-2----------------------|  4x
A|-------------------3-3--3-------3--------3-3--------|
E|---5--5--3-5--5-5------------------3--5-------5-----|

G|---------------|
D|---------------|  2x
A|---------------|
E|---3--4--5-----|
Suggest correction
Give kudos to tab author, rate the tab!
1 2 3 4 5
comments
print report bad tab
guest
You may want to rate the tab now too:
select rating
Wanna post a correction for this tab? Suggest correction