Oops, an error
Loading. Please wait.

Kinky Reggae Bass Tab

version 2
version 2

Whole song

6,381 views 18 this week
2 commentsread comments
1 2 3 4 5
excellent!
x 3
add to favorites
launch autoscroll
font size
0
reset
guitar tuner
Tab Pro tools
  • play this tab
  • loop segment
  • change instrument
  • show fretboard
  • metronome
×
Best way to learn
"Kinky Reggae"
Autoscroll
slow
fast
+/-
esc
set tempo
stop
Contributor
Artist - Bob Marley & the Wailers
Title - Kinky Reggae
Album - Catch a Fire
Bass Tab
  
Tabbed by - mattydread2@yahoo.com
             
verse play 12 times  
G|-------------------|
D|--5----------------|
A|---3-3-033-5-------|
E|-------------3(3)--|


bridge play 2 times
G|-------------------------------------|
D|-------------------10----------------|
A|-------------8-8-8----8--------------|
E|--35-5-355--8------------35-7-8-7-5--|


chorus play 4 times
G|--------------------------------|
D|--------------------------------|
A|-------------------75----3-3----|
E|--5-5-35---5588-8----8-35----5--|

play bridge,
play verse,
play chorus,
play bridge,
play chorus to fade.
comments
We did not receive enough feedback on this tab! Please rate:
print report bad tab
1 2 3 4 5
2 comments total.
0 reply
FlashiusClay wrote on February 16 2014, 07:20 pm, edited at 07:24 pm

You're the Judah lion of reggae tabs sir, thank you for all of your work. I moved this around a little bit so it could be played without a position shift. JAH!!
verse play 12 times
G|-------------------|
D|--5----------------|
A|---3-3-033-5----|
E|-------------3(3)--|
bridge play 2 times
G|-------------------5-----------------|
D|------------3-3-3----3---------------|
A|----------3-----------------2-3-2----|
E|--355--355---------------35-------5--|

chorus play 4 times
G|--------------------------------|
D|-------------------2------------|
A|-------------22-2---5-3--3-3----|
E|--5-5-35---55------------35----5--|

0 reply
FlashiusClay wrote on February 16 2014, 07:29 pm

Bumbaclot.
Sorry, I made some mistakes in my previous edit of your tab. This should be the right stuff here.

verse play 12 times
G|-------------------|
D|--5----------------|
A|---3-3-033-5-------|
E|-------------3(3)--|

bridge play 2 times
G|-------------------5-----------------|
D|------------3-3-3----3---------------|
A|----------3-----------------2-3-2----|
E|--355--355---------------35-------5--|

chorus play 4 times
G|--------------------------------|
D|-------------------2------------|
A|-------------33-3---5-3--3-3----|
E|--5-5-35---55----------35----5--|

I want to post or [tab]
guest
You may want to rate the tab now too:
select rating
Please do not post tabs as comments. Select "correction" instead!